PrimaNota.ru - самый крупный в мире бесплатный архив песенных текстов, аккордов, табулатур и нот


Sachin-Jigar - Any Body Can Dance-Bezubaan - аккорды и текст, видео

Регистрация Запомнить меня
Войти через:  Facebook Google Twitter Vk Yandex Mail.ru

Sachin-Jigar - Any Body Can Dance-Bezubaan - аккорды и текст, видео

Печатать
Просмотров: 81
Any Body Can Dance-Bezubaan
Sachin-Jigar
Intro :
e-----------------------------------------------------------------------------------------|
B-----------------------------------------------------------------------------------------|
G--------4p3-----------------4p3----------------4p3---------------------------------------|
D---------------4h6-----------------4h6----------------4h6--------------------------------|
A----6----------------6---6----------------6--7---------------66-----4h6p4----------------|
E--4-------------------------------------------------------------------------------7-6-7--|  (4 times)

      G#m
Hey jo lahoo mera..
      F#
Behta   chala..
      G#m
Dekho junoon mera
      B
Kehta chala..
            G#m      E
Khwaabon ka tha makaan
          F#
Jo dhehta chala..

         G#m          E
Bezubaan kab se, main raha
         B           F#
Begunaah sehta, main raha
         G#m          E
Bezubaan kab se, main raha
         B           F#
Begunaah sehta, main raha

Interlude :

e---------------|
B------------9--|
G----8-9-8------|           (8 times - bending the B string on 9th fret at 4th n 8th time..)
D---------------|
A---------------|
E---------------|


         G#m          E
Bezubaan kab se, main raha
         B           F#
Begunaah sehta, main raha
         G#m          E
Bezubaan kab se, main raha
         B           F#
Begunaah sehta, main raha

G#m
Khwaabon ka tere
Kissa hoon tera hi to main
           B                 F#
Hissa hoon mujhko na kar yun juda..

Interlude :
e---------------|
B------------9--|
G----8-9-8------|           (8 times - bending the B string on 9th fret at 4th n 8th time..)
D---------------|
A---------------|
E---------------|


     G#m            E
Meri jagah teri nig aahon mein
         G#m             E
Ho na ho main chala un raahon pe
   G#m
Jo ladkhada gaya kahin

Toh aaoge (B)tum hi toh

Thaamoge tum hi toh

     B                  F#
Phir berukhi.. kyun hai mujhse
         B               F#
Kyu aise bhala ho mujhse khafa
         G#m          E
Bezubaan kab se, main raha
         B           F#
Begunaah sehta, main raha
         G#m          E
Bezubaan kab se, main raha
         B           F#
Begunaah sehta, main raha
Добавлено: 06.06.2016
Другие материалы по этой песне:
  • Аккорды и текст

Страница создана 06.06.2016
http://primanota.ru/sachin-jigar/any-body-can-dance-bezubaan-chords.htm
Привет, Гость.
Предлагаем пройти революционный курс по гитаре.
Подарок от PrimaNota.Ru, забирай!