PrimaNota.ru - самый крупный в мире бесплатный архив песенных текстов, аккордов, табулатур и нот


Saccharine - Boredum - аккорды и текст, видео

Регистрация Запомнить меня
Войти через:  Facebook Google Twitter Vk Yandex Mail.ru

Saccharine - Boredum - аккорды и текст, видео

Печатать
Просмотров: 107
Boredum
Saccharine
Artist:SaCcHaRiNe
Song title:Boredum
My name:Zach Henderson
my email: chimeninnyhoo_1@hotmail.com

this file is my own work it is not copied from any tabulation resource

e|----------------------------------------
B|----------------------------------------
G|----------------------------------------
D|--5--5-5-10--10-10---8--8-8-5--5-5------
A|--5--5-5-10--10-10---8--8-8-5--5-5------
E|--3--3-3- 8-- 8- 8---6--6-6-3--3-3------



e|----------------------------------------
B|----------------------------------------
G|----------------------------------------
D|--5--5-5-9--9-9---7--7-7-5--5-5---------
A|--5--5-5-9--9-9---7--7-7-5--5-5---------
E|--3--3-3-7--7-7---5--5-5-3--3-3---------




     
Добавлено: 21.09.2013
Другие материалы по этой песне:
  • Аккорды и текст

Страница создана 21.09.2013
http://primanota.ru/saccharine/boredum-chords.htm
Привет, Гость.
Предлагаем пройти революционный курс по гитаре.
Подарок от PrimaNota.Ru, забирай!