PrimaNota.ru - самый крупный в мире бесплатный архив песенных текстов, аккордов, табулатур и нот


Ryszard Rynkowski - Ten Sam Klucz - аккорды и текст, видео

Регистрация Запомнить меня
Войти через:  Facebook Google Twitter Vk Yandex Mail.ru

Ryszard Rynkowski - Ten Sam Klucz - аккорды и текст, видео

Печатать
Просмотров: 69
Ten Sam Klucz
Ryszard Rynkowski
Opracowanie: Szymon Kaczmarczyk
-- 
Wykonawca:   Ryszard Rynkowski
Tytuł:       Ten sam klucz
Płyta:       Dary losu
Rok wydania: 2000

muz. Ryszard Rynkowski, sł. Jacek Cygan


F
Powiedz mi,
B                         F
Dlaczego z naszych domów wieje chłód
     B                   F
W dotyku klamek mieszka tylko lód
   B                       F           G
A ludzi bliskich zamiast czułych słów
       B        B   C    F
Łączy tylko... ten sam klucz.

F
Powiedz mi,
B                       F
Dlaczego ojciec z synem obcy są
   B                             F
Mijają się jak cienie, w oczach mają wosk
    B                       F           G
A kiedyś tyle serca, tyle czułych słów,
         B        B   C    F
Dzisiaj tylko... ten sam klucz.

     B           F         B        F
Bo niebo jest w nas, zamknięte na klucz,
     B          F          G       C
Dziś otwórz je nam, Panie mój.

F
     B                           F
Tu matka a tam córka, zobacz, wspólny dom,
    B                           F
Dla obcych są tak miłe jak najczulsza dłoń,
     B                           F          G
Dla siebie takie obce, żadnych czułych słów.
       B      B   C    F
Co je łączy? Ten sam klucz.

     B           F         B        F
Bo niebo jest w nas, zamknięte na klucz,
     B          F          G       C
Dziś otwórz je nam, Panie mój.


[solo] + podkład (jak w zwrotce, tylko bez 4 wersu):
F  B  F  B  F  B  C F

   B                       F
Sycimy się miłością która cudza jest,
     B                               F
Grzejemy się w jej blasku, w ogniach obcych świec,
   B                         F                G
A nam przez gardło w domu... nie chcą przejść,
         B      B  C   F
Zwykłe słowa:  Kocham Cię.

 F              B              C
Kocham, kocham Cię ... zwykłe słowa
Kocham, kocham Cię ... a nam przez gardło nie chcą przejść
Kocham, kocham Cię ... słowa Kocham Cię
Kocham, kocham Cię ... przez gardło nie chcą przejść
Kocham, kocham Cię .....................
Kocham, kocham Cię .....................
Kocham!

------
[solo]

E|--------8-8~~~~---8-8------------------------------|
B|---8\10----------------11-11-10--11p10p8~~~--------|
G|---------------------------------------------------|
D|---------------------------------------------------|
A|---------------------------------------------------|
E|---------------------------------------------------|

E|--------------------------------13----13-----------|
B|---8p6-8--\10-10~~~~------13-13----11----14~~~-----|
G|---------------------------------------------------|
D|---------------------------------------------------|
A|---------------------------------------------------|
E|---------------------------------------------------|

E|---11p9\8----8------8---8--------------------------|
B|----------11---9\10---8----------------------------|
G|--------------------------10~~~~-------------------|
D|---------------------------------------------------|
A|---------------------------------------------------|
E|---------------------------------------------------|

E|--------------------8\10p8-------------------------|
B|--------6\8p6h8p6----------10----------------------|
G|---7-10-----------------------10~~~----------------|
D|---------------------------------------------------|
A|---------------------------------------------------|
E|---------------------------------------------------|

E|---------------------------------------------------|
B|---11p10-------------------------------------------|
G|---------10-----------10~~~------------------------|
D|------------10-10p8\7------------------------------|
A|---------------------------------------------------|
E|---------------------------------------------------|


--------------
Skład zespołu:
 Jacek Królik - gitara akustyczna,
 Leszek Matecki - gitary,
 Wojtek Kuzyk - bas,
 Krzysztof Patocki - perkusja,
 Rafał Paczkowski - organy Hammonda,
 Magda Steczkowska, Iza Ziółek, Andrzej Kruk - chórek.
Добавлено: 24.06.2016
Другие материалы по этой песне:
  • Аккорды и текст

Страница создана 24.06.2016
http://primanota.ru/ryszard-rynkowski/ten-sam-klucz-chords.htm
Привет, Гость.
Предлагаем пройти революционный курс по гитаре.
Подарок от PrimaNota.Ru, забирай!