PrimaNota.ru - самый крупный в мире бесплатный архив песенных текстов, аккордов, табулатур и нот


Ryosuke Nakanishi - Akuma Wa Kare No Tsuyo-sa O Torimodosu - таба

Регистрация Запомнить меня
Войти через:  Facebook Google Twitter Vk Yandex Mail.ru

Ryosuke Nakanishi - Akuma Wa Kare No Tsuyo-sa O Torimodosu - таба

Печатать
Просмотров: 101
-------------------------------------------------------------------------------
           Akuma wa kare no tsuyo-sa o torimodosu - Ryosuke Nakanishi
-------------------------------------------------------------------------------
Tabbed by: Trapphus
E-mail: kissen98@hotmail.com

Tuning: Standard eBGDAE

OST 26 of Hataraku Maou-sama

English name: The Devil Regains his Strength

All rights go to: "FUNimation Entertainment, Lantis, Pony Canyon, White Fox"


e|----------------------------------------------------------------------------------------------|
B|----------------------------------------------------------------------------------------------|
G|----------------------------------------------------------------------------------------------|
D|----------------------------------------------------------------------------------------------|
A|-----------------------------------------------------------3/7-7------------------------------|
E|--15/5-5-5-5-5-5-3-3-5-5--5-5x-5x-5x-5x--5-5-5-5-5-3-3-5-5------------------------------------|

e|----------------------------------------------------------------------------------------------|
B|------------------------5----------------------------------------------------5----------------|
G|--------5-4-5~----4-5-7---7-5-4----5-4-5~--4------5-7--------5-4-5~----4-5-7---7-5-4----2h3p2-|
D|----7-----------7---------------7------------7-5-----------7---------7---------------7--------|
A|--7------------------------------------------------------7------------------------------------|
E|----------------------------------------------------------------------------------------------|

e|----------------------------------------------------------------------------------------------|
B|----------5---6/8-8/12----13-12-13------------------------------------------------------------|
G|----4-5-7---7----------14---------------------------------------------------------------------|
D|--7-------------------------------------------------------------------------------------------|
A|----------------------------------------------------------------------------------------------|
E|----------------------------------------------------------------------------------------------|

e|-----------12-----------------------------------------------------------------------12--------|
B|--12-13-15----15-13-12-----13-12-13~--12-------13-15---------13-12-13-----12-13-15----15-13-12|
G|14~---------------------14~---------------14-12-----------14------------14--------------------|
D|--------------------------------------------------------14------------------------------------|
A|----------------------------------------------------------------------------------------------|
E|----------------------------------------------------------------------------------------------|

e|---------------12-----------------------------------------------------------------------------|
B|------12-13-15----15-13-12--------------------------------------------------------------------|
G|---14-----------------------------------------------------------------------------------------|
D|----------------------------------------------------------------------------------------------|
A|----------------------------------------------------------------------------------------------|
E|----------------------------------------------------------------------------------------------|

e|----------------------------------------------------------------------------------------------|
B|---10-12-13-15-10-12-13-15--------------------------------------------------------------------|
G|----------------------------------------------------------------------------------------------|
D|----------------------------------------------------------------------------------------------|
A|----------------------------------------------------------------------------------------------|
E|----------------------------------------------------------------------------------------------|x4

e|----------------------------------------------------------------------------------------------|
B|------12-13-15----12-13-15--------------------------------------------------------------------|
G|---10----------10-----------------------------------------------------------------------------|
D|----------------------------------------------------------------------------------------------|
A|----------------------------------------------------------------------------------------------|
E|----------------------------------------------------------------------------------------------|x4

e|----------------------------------------------------------------------------------------------|
B|------13-14-15----13-14-15--------------------------------------------------------------------|
G|---12----------12-----------------------------------------------------------------------------|
D|----------------------------------------------------------------------------------------------|
A|----------------------------------------------------------------------------------------------|
E|----------------------------------------------------------------------------------------------|x4

e|----------------------------------------------------------------------------------------------|
B|---10-12-13-15-10-12-13-15--------------------------------------------------------------------|
G|----------------------------------------------------------------------------------------------|
D|----------------------------------------------------------------------------------------------|
A|----------------------------------------------------------------------------------------------|
E|----------------------------------------------------------------------------------------------|x2

e|----------------------------------------------------------------------------------------------|
B|----------------------------------------------------------------------------------------------|
G|---9h10p9h10p9---9h10p9h10h9------------------------------------------------------------------|
D|----------------------------------------------------------------------------------------------|
A|------------------------------7-9-------------------------------------------------------------|
E|----------------------------------------------------------------------------------------------|x2

e|----------------------------------------------------------------------------------------------|
B|---15h16p15h16p15---15h16p15h16p15------------------------------------------------------------|
G|----------------------------------------------------------------------------------------------|
D|------------------------------------14-15-----------------------------------------------------|
A|----------------------------------------------------------------------------------------------|
E|----------------------------------------------------------------------------------------------|x2

e|------------------------------15--------------------------------------------------------------|
B|--------16-15-16-----15-16-18----18-16-15------16-15-16---15--------16-18---------------------|
G|---17~------------17----------------------17-----------------17-15----------------------------|
D|----------------------------------------------------------------------------------------------|
A|----------------------------------------------------------------------------------------------|
E|----------------------------------------------------------------------------------------------|

e|--------------------------------------------------15-----13/15-15/19--------------------------|
B|----------------------------16-15-16-----15-16-18----18---------------------------------------|
G|------------------------17------------17------------------------------------------------------|
D|---------------------17-----------------------------------------------------------------------|
A|----------------------------------------------------------------------------------------------|
E|----------------------------------------------------------------------------------------------|

e|---17-17---17-17---17-17---17-17-------17-17---17-17---17-17---17-17--------------------------|
B|----------------------------------------------------------------------------------------------|
G|----------------------------------------------------------------------------------------------|
D|----------------------------------------------------------------------------------------------|
A|----------------------------------------------------------------------------------------------|
E|----------------------------------------------------------------------------------------------|

e|--17-17---17-17---18-18---18-18---------------------------------------------------------------|
B|--16-16---16-16---17-17---17-17---------------------------------------------------------------|
G|--14-14---14-14---15-15---15-15---------------------------------------------------------------|
D|----------------------------------------------------------------------------------------------|
A|----------------------------------------------------------------------------------------------|
E|----------------------------------------------------------------------------------------------|

e|----------------------------------------------------------------------------------------------|
B|----------------------------------------------------------------------------------------------|
G|--15-15---15-15-15-15-15-15-15-15-------------------------------------------------------------|
D|--14-14---14-14-14-14-14-14-14-14-------------------------------------------------------------|
A|--12-12---12-12-12-12-12-12-12-12-------------------------------------------------------------|
E|----------------------------------------------------------------------------------------------|
Добавлено: 09.08.2015
Другие материалы по этой песне:
  • Аккорды и текст

Страница создана 09.08.2015
http://primanota.ru/ryosuke-nakanishi/akuma-wa-kare-no-tsuyo-sa-o-torimodosu-chords.htm
Привет, Гость.
Предлагаем пройти революционный курс по гитаре.
Подарок от PrimaNota.Ru, забирай!