PrimaNota.ru - самый крупный в мире бесплатный архив песенных текстов, аккордов, табулатур и нот


Ryashon - Mortal Kombat - таба, бас-таба, видео

Регистрация Запомнить меня
Войти через:  Facebook Google Twitter Vk Yandex Mail.ru

Ryashon - Mortal Kombat - таба, бас-таба, видео

Печатать
Просмотров: 289
Hey Ultimate-Guitar :)
Decided to make this tab, I know some bits you may think are wrong, but looking at the 
I don't feel comfortable when playing with the soundtrack, so here's MY version of 
this song...
(RESET - This is for you.)

Drop D

Lead - Left speaker
Rhythm - Right speaker

Intro

Lead

E|----------------0----------0---3---0--------------------------------------|
B|--------1---3------3---1-1---1---1---1-------0---1---3-1---------1---1-0--|
G|--0h2-2---2---2--------------------------0-0---0---0---------2------------|
D|---------------------------------------------------------3-3---3---3------|
A|--------------------------------------------------------------------------|
D|--------------------------------------------------------------------------|

Rhythm

E|--------------------------------------------------------------------------|
B|--------------------------------------------------------------------------|
G|---------------------7>9------------------5>7-----------------------------|
D|--5>7-------------------------------------------------10-9--10h9h7--------|
A|--------------------------------------------------------------------------|
D|--------------------------------------------------------------------------|

^
x2

Verse

Drums come in...

PART A


Lead/Rhythm

They do this bit together...

E|-------------------------------------------------------------|
B|-------------------------------------------------------------|
G|-------------5-----------------------------5-----------------|
D|--7-7-7-7--5-5---7-7-7-7--5-2---7-7-7-7--5-5--7-7-7-7--5-7---|  x2
A|--7-7-7-7--5-3---7-7-7-7--5-2---7-7-7-7--5-3--7-7-7-7--5-7---|
D|--7-7-7-7--5-----7-7-7-7--5-2---7-7-7-7--5----7-7-7-7--5-7---|


PART B


E|-----------------------------|
B|-----------------------------|
G|-----------------------------|
D|-----------------------------| x7
A|----7------------------------|
D|--7---7h10-7h8-7h10--7h8h5---|

Fill

E|------------|
B|------------|
G|------------|
D|--7-7-7-7---|
A|--7-7-7-7---|
D|--7-7-7-7---|

PART C


E|-------------------|
B|-------------------|
G|-------------------|
D|--7-7-7--5---2-----|   x16
A|--7-7-7--5---2-----|
D|--7-7-7--5---2-----|

They separate again here...

Lead

E|----------------------------------------------------------|
B|----------------------------------------------------------|
G|----------------------------------------------------------|
D|----------------------------------------------------------|   x2
A|------------3---------------------------3-----------------|
D|--7-7-7-7-5-----7-7-7-7-2-5---7-7-7-7-5-----7-7-7-7-5-2---|

Rhythm

Just play the beginning again...

Lead

Play: PART B, PART C, PART D

Next bit...

Rhythm

Play this bit with PART B...

E|-----------------------------|
B|-----------------------------|
G|-----------------------------|
D|----9------------------------|  x8
A|--7--7h10-7h8-7h10-7h8h5-----|
D|-----------------------------|

Play: PART C, PART D

PART D


They play this bit the same too...

Lead/Rhythm

E|-----------------------------------------------|
B|-----------------------------------------------|
G|--------------------------7-------9-------12---|
D|-------9--------10-----------------------------|
A|--7h10-----7h10------7h10----7h10----7h10------|
D|-----------------------------------------------|

E|-------------------------|
B|-------------------------|
G|-------------------------|
D|--2-2--2---2-2--2---0-3--|   x8  with the odd fill, but that's easy to work
A|--2-2--2---2-2--2---0-3--|       out
D|--2-2--2---2-2--2---0-3--|
    . .  .   . .  .   . .

PART E


This is all tremello picking, but i'm just going to show what frets to play...

Lead

E|---------------------------------|
B|---------------------------------|
G|---------------------------------|
D|---------------------7>10--7>9---|   x2
A|--3--2--5----7-8-7---------------|
D|----------7----------------------|

Rhythm

Tremello picking again...

E|---------------------------------|
B|---------------------------------|
G|-------------------7>9--5>7------|
D|--2--0--3-----5------------------|   x2
A|----------3----------------------|
D|---------------------------------|

Outro

Lead

Just play the begging again...

Rhythm

E|-------------------------------------------------------------------------|
B|--15-15h17--15h17h15--13-12-12h13-12-------------------------------------|
G|-------------------------------------12----------------------------------|
D|----------------------------------------12--14-12-10-9-10-9-10h9h7----7--|
A|-------------------------------------------------------------------10----|
D|-------------------------------------------------------------------------|

E|----------------------------------------------|
B|----------------------------------------------|
G|-----------------------------------------4----|
D|------2h3h5-5>7-5------------------------2----|
A|--3h5---------------7-5-3-5----7-5-3-2---2----|
D|----------------------------------------------|

Thanks for playing, hope this could help, comment and rate please ^_^ :]

RJ_Rock
Добавлено: 14.06.2012
Другие материалы по этой песне:

Страница создана 23.03.2012
http://primanota.ru/ryashon/mortal-kombat-chords.htm
Привет, Гость.
Предлагаем пройти революционный курс по гитаре.
Подарок от PrimaNota.Ru, забирай!