PrimaNota.ru - самый крупный в мире бесплатный архив песенных текстов, аккордов, табулатур и нот


Ryan Seiler - The Prisoner - таба, видео

Регистрация Запомнить меня
Войти через:  Facebook Google Twitter Vk Yandex Mail.ru

Ryan Seiler - The Prisoner - таба, видео

Печатать
Просмотров: 55
Capo 3rd

Intro

(Figure the rhythm of the chords from the song)
e|-0-0-0-0-0-0--0-0-0-0-0          e|-0---0-0--0--0
b|-0-0-0-0-0-0--0-0-0-0-0          b|-0---0-0--0--0
g|-4-4-4-4-4-4--6-6/7\6\4    (x3)  g|-0---0-0--2--0
d|-2-2-2-2-2-2--4-4-4-4\2          d|-0---2-2--2--0
a|-2-2-2-2-2-2--4-4-4-4\2          a|-2p0-2-2--0--2
E|-0-0-0-0-0-0--0-0-0-0-0          E|-3p0-0-0--0--3

Verse
e|-0-0--0--0-0--0          e|-0---0-0--0--0
b|-0-0--0--0-0--0          b|-0---0-0--0--0
g|-4-4--4--4-4--4    (x3)  g|-0---0-0--2--0
d|-2-2--2--2-2--2          d|-0---2-2--2--0
a|-2-2--2--2-2--2          a|-2p0-2-2--0--2
E|-0-0--0--0-0--0          E|-3p0-0-0--0--3

Chorus

These chords (Asus2 and Em) repeated
e|-0-0--0-------0-0--0 then -0- repeated
b|-0-0--0-------0-0--0      -0-
g|-2-2--2-------0-0--0      -4-
d|-2-2--2-------2-2--2      -2-
a|-0-0--0-------2-2--2      -2-
E|--------------0-0--0      -0-

Bridge

Similar to chorus
Добавлено: 01.01.2016
Другие материалы по этой песне:
  • Аккорды и текст

Страница создана 01.01.2016
http://primanota.ru/ryan-seiler/prisoner-chords.htm
Привет, Гость.
Предлагаем пройти революционный курс по гитаре.
Подарок от PrimaNota.Ru, забирай!