PrimaNota.ru - самый крупный в мире бесплатный архив песенных текстов, аккордов, табулатур и нот


Ryan Keen - Thank You - таба, видео

Регистрация Запомнить меня
Войти через:  Facebook Google Twitter Vk Yandex Mail.ru

Ryan Keen - Thank You - таба, видео

Печатать
Просмотров: 182
Уроки эстрадного вокала в Санкт-Петербурге
Ryan Keen - Thank You
http://www.ryankeen.co.uk/

Tabbed By - Thom_Alexander

Tuning: DADDAD

Due to the percussion in the song I shall use X's to indicate a percussive action. 
Below is a key indicating what each X means. If you know of a better way to tab 
percussion on a guitar feel free to email me. 
Ryan tends to vary what he does slightly each time so feel free to play around with this tab.

Here is the video in which I tabbed, I recommend listening whilst reading the tab
http://www.youtube.com/watch?v=AbQ2QS58dnQ

e|-----|
B|-----|
G|-----|
D|-----|
A|-----|
E|--X--| <-- Low E string: Slap your thumb on the top string.

e|-----|
B|-----|
G|-----|
D|-----|
A|--X--| <-- A string: Tap soundboard below the bridge.
E|-----|

e|-----|
B|-----|
G|-----|
D|--X--| <-- D string: Roll fingers on lower rim of the guitar.
A|-----|
E|-----|

e|-----|
B|-----|
G|--X--| <-- G string: Tap the lower side of the guitar.
D|-----|
A|-----|
E|-----|


| s - slide
| h - hammer-on
| p - pull-off
| RH.H – Right hand slap harmonic
| RH.R – Roll your right hand when strumming
| lower case x – mute


OPENING

RH.H         RH.H         RH.H          RH.H
d|----(12)---------(12)--|------(12)----------(12)-----|
A|----(12)---------(12)--|------(12)----------(12)-----|
D|----(12)---------(12)--|------(12)----------(12)-----|
D|-0-------0-------------|---0--------0----------------|
A|-0-------0---X---------|---0--------0---X------------|
D|-0-------0-------------|---0--------0----------------|

RH.H         RH.H         RH.H          RH.H
d|----(12)---------(12)--|------(12)----------(12)-----|
A|----(12)---------(12)--|------(12)----------(12)-----|
D|----(12)---------(12)--|------(12)----------(12)-----|
D|-0-------0-------------|---0--------0----------------|
A|-0-------0---X---------|---0--------0---X------------|
D|-0-------0-------------|---0--------0----------------|


1ST VERSE

      RH.H         RH.H         RH.H          RH.H
d|----(12)---------(12)--|------(12)----------(12)-----|
A|----(12)---------(12)--|------(12)----------(12)-----|
D|----(12)---------(12)--|------(12)----------(12)-----|
D|-0-------0-------------|---0--------0----------------|
A|-0-------0---X---------|---0--------0---X------------|
D|-0-------0-------------|---0--------0----------------|

      RH.H         RH.H         RH.H          RH.H
d|----(12)---------(12)--|------(12)----------(12)-----|
A|----(12)---------(12)--|------(12)----------(12)-----|
D|----(12)---------(12)--|------(12)----------(12)-----|
D|-0-------0-------------|---0--------0----------------|
A|-5-------5---X---------|---5--------5---X------------|
D|-5-------5-------------|---5--------5----------------|


PRE-CHORUS

     RH.R  RH.H              RH.R  RH.H
d|----0----(12)---------|-----0—---(12)----------------|
A|----0----(12)---------|-----0----(12)----------------|
D|----0----(12)------X--|-----0----(12)--------X-------|
D|-0--0------------X----|--0--0--------------X---------|
A|-9--9----------X------|--9--9------------X------p0---|
D|-9--9-----------------|--9--9-------------------p0---|

     RH.R  RH.H              RH.R  RH.H
d|----0----(12)---------|-----0—---(12)----------------|
A|----0----(12)---------|-----0----(12)----------------|
D|----0----(12)------X--|-----0----(12)--------X-------|
D|-0--0------------X----|--0--0--------------X---------|
A|-7--7----------X------|--7--7------------X------p0---|
D|-7--7-----------------|--7--7-------------------p0---|



     RH.R  RH.H              RH.R  RH.H
d|----0----(12)---------|-----0—---(12)----------------|
A|----0----(12)---------|-----0----(12)----------------|
D|----0----(12)------X--|-----0----(12)--------X-------|
D|-0--0------------X----|--0--0--------------X---------|
A|-9--9----------X------|--9--9------------X------p0---|
D|-9--9-----------------|--9--9-------------------p0---|

     RH.R  RH.H              
d|----0----(12)---------|-----0—-----------------------|
A|----0----(12)---------|-----0------------------------|
D|----0----(12)------X--|-----0------------------------|
D|-0--0------------X----|-----0------------------------|
A|-5--5----------X------|-----5------------------------|
D|-5--5-----------------|-----5------------------------|


CHORUS

            RH.H                 RH.H
d|-0--------(12)-----------------(12)-----------------|
A|-0--h5p0—-(12)-—h7p0-----h9p0—-(12)—-h7p0-----h5p0--|
D|-0--------(12)-----------------(12)-----------------|
D|----------(12)-----------------(12)-----------------|
A|----h5p0--------h7p0--X--h9p0--------h7p0--X—-h5p0--|
D|-X--------------------------------------------------|

            RH.H                 RH.H
d|-0--------(12)-----------------(12)-----------------|
A|-0--h5p0—-(12)-—h7p0-----h9p0—-(12)—-h7p0-----h5p0--|
D|-0--------(12)-----------------(12)-----------------|
D|----------(12)-----------------(12)-----------------|
A|----h5p0--------h7p0--X--h9p0--------h7p0--X—-h5p0--|
D|-X--------------------------------------------------|

     RH.R  RH.H               RH.R   RH.H      
d|----0----(12)-----------|----0—----(12)-------------|
A|----0----(12)-----------|----0-----(12)-------------|
D|----0----(12)------X----|----0-----(12)-------X-----|
D|-0--0------------X------|-0--0--------------X-------|
A|-5--5----------X--------|-5--5------------X---------|
D|-5--5-------------------|-5--5----------------------|

            RH.H                 RH.H
d|-0--------(12)-----------------(12)-----------------|
A|-0--h5p0—-(12)-—h7p0-----h9p0—-(12)—-h7p0-----h5p0--|
D|-0--------(12)-----------------(12)-----------------|
D|----------(12)-----------------(12)-----------------|
A|----h5p0--------h7p0--X--h9p0--------h7p0--X—-h5p0--|
D|-X--------------------------------------------------|

            RH.H                 RH.H
d|-0--------(12)-----------------(12)-----------------|
A|-0--h5p0—-(12)-—h7p0-----h9p0—-(12)—-h7p0-----h5p0--|
D|-0--------(12)-----------------(12)-----------------|
D|----------(12)-----------------(12)-----------------|
A|----h5p0--------h7p0--X--h9p0--------h7p0--X—-h5p0--|
D|-X--------------------------------------------------|

     RH.R  RH.H               RH.R   RH.H      
d|----0----(12)-----------|----0—----(12)-------------|
A|----0----(12)-----------|----0-----(12)-------------|
D|----0----(12)------X----|----0-----(12)-------X-----|
D|-0--0------------X------|-0--0--------------X-------|
A|-5--5----------X--------|-5--5------------X---------|
D|-5--5-------------------|-5--5----------------------|


2nd VERSE

     RH.R  RH.H               RH.R   RH.H      
d|----0----(12)-----------|----0—----(12)-------------|
A|----0----(12)-----------|----0-----(12)-------------|
D|----0----(12)------X----|----0-----(12)-------X-----|
D|-0--0------------X------|-0--0--------------X-------|
A|-0--0----------X--------|-0--0------------X---------|
D|-0--0-------------------|-0--0----------------------|

     RH.R  RH.H               RH.R   RH.H      
d|----0----(12)-----------|----0—----(12)-------------|
A|----0----(12)-----------|----0-----(12)-------------|
D|----0----(12)------X----|----0-----(12)-------X-----|
D|-0--0------------X------|-0--0--------------X-------|
A|-5--5----------X--------|-5--5------------X---------|
D|-5--5-------------------|-5--5----------------------|

     RH.R  RH.H               RH.R   RH.H      
d|----0----(12)-----------|----0—----(12)-------------|
A|----0----(12)-----------|----0-----(12)-------------|
D|----0----(12)------X----|----0-----(12)-------X-----|
D|-0--0------------X------|-0--0--------------X-------|
A|-0--0----------X--------|-0--0------------X---------|
D|-0--0-------------------|-0--0----------------------|

     RH.R  RH.H               RH.R   RH.H      
d|----0----(12)-----------|----0—----(12)-------------|
A|----0----(12)-----------|----0-----(12)-------------|
D|----0----(12)------X----|----0-----(12)-------X-----|
D|-0--0------------X------|-0--0--------------X-------|
A|-5--5----------X--------|-5--5------------X---------|
D|-5--5-------------------|-5--5----------------------|


PRE-CHORUS

     RH.R  RH.H              RH.R  RH.H
d|----0----(12)---------|-----0—---(12)----------------|
A|----0----(12)---------|-----0----(12)----------------|
D|----0----(12)------X--|-----0----(12)--------X-------|
D|-0--0------------X----|--0--0--------------X---------|
A|-9--9----------X------|--9--9------------X------p0---|
D|-9--9-----------------|--9--9-------------------p0---|

     RH.R  RH.H              RH.R  RH.H
d|----0----(12)---------|-----0—---(12)----------------|
A|----0----(12)---------|-----0----(12)----------------|
D|----0----(12)------X--|-----0----(12)--------X-------|
D|-0--0------------X----|--0--0--------------X---------|
A|-7--7----------X------|--7--7------------X------p0---|
D|-7--7-----------------|--7--7-------------------p0---|



     RH.R  RH.H              RH.R  RH.H
d|----0----(12)---------|-----0—---(12)----------------|
A|----0----(12)---------|-----0----(12)----------------|
D|----0----(12)------X--|-----0----(12)--------X-------|
D|-0--0------------X----|--0--0--------------X---------|
A|-9--9----------X------|--9--9------------X------p0---|
D|-9--9-----------------|--9--9-------------------p0---|

     RH.R  RH.H              
d|----0----(12)---------|-----0—-----------------------|
A|----0----(12)---------|-----0------------------------|
D|----0----(12)------X--|-----0------------------------|
D|-0--0------------X----|-----0------------------------|
A|-5--5----------X------|-----5------------------------|
D|-5--5-----------------|-----5------------------------|


CHORUS

            RH.H                 RH.H
d|-0--------(12)-----------------(12)-----------------|
A|-0--h5p0—-(12)-—h7p0-----h9p0—-(12)—-h7p0-----h5p0--|
D|-0--------(12)-----------------(12)-----------------|
D|----------(12)-----------------(12)-----------------|
A|----h5p0--------h7p0--X--h9p0--------h7p0--X—-h5p0--|
D|-X--------------------------------------------------|

            RH.H                 RH.H
d|-0--------(12)-----------------(12)-----------------|
A|-0--h5p0—-(12)-—h7p0-----h9p0—-(12)—-h7p0-----h5p0--|
D|-0--------(12)-----------------(12)-----------------|
D|----------(12)-----------------(12)-----------------|
A|----h5p0--------h7p0--X--h9p0--------h7p0--X—-h5p0--|
D|-X--------------------------------------------------|

     RH.R  RH.H               RH.R   RH.H      
d|----0----(12)-----------|----0—----(12)-------------|
A|----0----(12)-----------|----0-----(12)-------------|
D|----0----(12)------X----|----0-----(12)-------X-----|
D|-0--0------------X------|-0--0--------------X-------|
A|-5--5----------X--------|-5--5------------X---------|
D|-5--5-------------------|-5--5----------------------|

            RH.H                 RH.H
d|-0--------(12)-----------------(12)-----------------|
A|-0--h5p0—-(12)-—h7p0-----h9p0—-(12)—-h7p0-----h5p0--|
D|-0--------(12)-----------------(12)-----------------|
D|----------(12)-----------------(12)-----------------|
A|----h5p0--------h7p0--X--h9p0--------h7p0--X—-h5p0--|
D|-X--------------------------------------------------|

            RH.H                 RH.H
d|-0--------(12)-----------------(12)-----------------|
A|-0--h5p0—-(12)-—h7p0-----h9p0—-(12)—-h7p0-----h5p0--|
D|-0--------(12)-----------------(12)-----------------|
D|----------(12)-----------------(12)-----------------|
A|----h5p0--------h7p0--X--h9p0--------h7p0--X—-h5p0--|
D|-X--------------------------------------------------|

     RH.R  RH.H               RH.R   RH.H      
d|----0----(12)-----------|----0—----(12)-------------|
A|----0----(12)-----------|----0-----(12)-------------|
D|----0----(12)------X----|----0-----(12)-------X-----|
D|-0--0------------X------|-0--0--------------X-------|
A|-5--5----------X--------|-5--5------------X---------|
D|-5--5-------------------|-5--5----------------------|


BRIDGE

d|---------------------------|--------------------------|-----------------------|
A|-------0-------0-----------|-----0-------0------------|-------0-------0-------|
D|----0-------0--------------|---0-------0--------------|----0-------0----------|
D|---------------------------|--------------------------|-----------------------|
A|---------------------------|--------------------------|-10-------9--------7---|
D|-9-------7--------5--------|-9------11------12--------|-----------------------|


CHORUS

            RH.H                 RH.H
d|-0--------(12)-----------------(12)-----------------|
A|-0--h5p0—-(12)-—h7p0-----h9p0—-(12)—-h7p0-----h5p0--|
D|-0--------(12)-----------------(12)-----------------|
D|----------(12)-----------------(12)-----------------|
A|----h5p0--------h7p0--X--h9p0--------h7p0--X—-h5p0--|
D|-X--------------------------------------------------|

            RH.H                 RH.H
d|-0--------(12)-----------------(12)-----------------|
A|-0--h5p0—-(12)-—h7p0-----h9p0—-(12)—-h7p0-----h5p0--|
D|-0--------(12)-----------------(12)-----------------|
D|----------(12)-----------------(12)-----------------|
A|----h5p0--------h7p0--X--h9p0--------h7p0--X—-h5p0--|
D|-X--------------------------------------------------|

     RH.R  RH.H               RH.R   RH.H      
d|----0----(12)-----------|----0—----(12)-------------|
A|----0----(12)-----------|----0-----(12)-------------|
D|----0----(12)------X----|----0-----(12)-------X-----|
D|-0--0------------X------|-0--0--------------X-------|
A|-5--5----------X--------|-5--5------------X---------|
D|-5--5-------------------|-5--5----------------------|

            RH.H                 RH.H
d|-0--------(12)-----------------(12)-----------------|
A|-0--h5p0—-(12)-—h7p0-----h9p0—-(12)—-h7p0-----h5p0--|
D|-0--------(12)-----------------(12)-----------------|
D|----------(12)-----------------(12)-----------------|
A|----h5p0--------h7p0--X--h9p0--------h7p0--X—-h5p0--|
D|-X--------------------------------------------------|

            RH.H                 RH.H
d|-0--------(12)-----------------(12)-----------------|
A|-0--h5p0—-(12)-—h7p0-----h9p0—-(12)—-h7p0-----h5p0--|
D|-0--------(12)-----------------(12)-----------------|
D|----------(12)-----------------(12)-----------------|
A|----h5p0--------h7p0--X--h9p0--------h7p0--X—-h5p0--|
D|-X--------------------------------------------------|

     RH.R  RH.H               RH.R   RH.H      
d|----0----(12)-----------|----0—----(12)-------------|
A|----0----(12)-----------|----0-----(12)-------------|
D|----0----(12)------X----|----0-----(12)-------X-----|
D|-0--0------------X------|-0--0--------------X-------|
A|-5--5----------X--------|-5--5------------X---------|
D|-5--5-------------------|-5--5----------------------|


BRIDGE

d|---------------------------|--------------------------|-----------------------|
A|-------0-------0-----------|-----0-------0------------|-------0-------0-------|
D|----0-------0--------------|---0-------0--------------|----0-------0----------|
D|---------------------------|--------------------------|-----------------------|
A|---------------------------|--------------------------|-10-------9--------7---|
D|-9-------7--------5--------|-9------11------12--------|-----------------------|


CHORUS

            RH.H                 RH.H
d|-0--------(12)-----------------(12)-----------------|
A|-0--h5p0—-(12)-—h7p0-----h9p0—-(12)—-h7p0-----h5p0--|
D|-0--------(12)-----------------(12)-----------------|
D|----------(12)-----------------(12)-----------------|
A|----h5p0--------h7p0--X--h9p0--------h7p0--X—-h5p0--|
D|-X--------------------------------------------------|

            RH.H                 RH.H
d|-0--------(12)-----------------(12)-----------------|
A|-0--h5p0—-(12)-—h7p0-----h9p0—-(12)—-h7p0-----h5p0--|
D|-0--------(12)-----------------(12)-----------------|
D|----------(12)-----------------(12)-----------------|
A|----h5p0--------h7p0--X--h9p0--------h7p0--X—-h5p0--|
D|-X--------------------------------------------------|

     RH.R  RH.H               RH.R   RH.H      
d|----0----(12)-----------|----0—----(12)-------------|
A|----0----(12)-----------|----0-----(12)-------------|
D|----0----(12)------X----|----0-----(12)-------X-----|
D|-0--0------------X------|-0--0--------------X-------|
A|-5--5----------X--------|-5--5------------X---------|
D|-5--5-------------------|-5--5----------------------|

            RH.H                 RH.H
d|-0--------(12)-----------------(12)-----------------|
A|-0--h5p0—-(12)-—h7p0-----h9p0—-(12)—-h7p0-----h5p0--|
D|-0--------(12)-----------------(12)-----------------|
D|----------(12)-----------------(12)-----------------|
A|----h5p0--------h7p0--X--h9p0--------h7p0--X—-h5p0--|
D|-X--------------------------------------------------|

            RH.H                 RH.H
d|-0--------(12)-----------------(12)-----------------|
A|-0--h5p0—-(12)-—h7p0-----h9p0—-(12)—-h7p0-----h5p0--|
D|-0--------(12)-----------------(12)-----------------|
D|----------(12)-----------------(12)-----------------|
A|----h5p0--------h7p0--X--h9p0--------h7p0--X—-h5p0--|
D|-X--------------------------------------------------|

     RH.R  RH.H               RH.R   RH.H      
d|----0----(12)-----------|----0—----(12)-------------|--0--|
A|----0----(12)-----------|----0-----(12)-------------|--0--|
D|----0----(12)------X----|----0-----(12)-------X-----|--0--|
D|-0--0------------X------|-0--0--------------X-------|--0--|
A|-5--5----------X--------|-5--5------------X---------|--0--|
D|-5--5-------------------|-5--5----------------------|--0--|
Добавлено: 14.07.2013
Другие материалы по этой песне:
  • Аккорды и текст

Страница создана 14.07.2013
http://primanota.ru/ryan-keen/thank-you-chords.htm
Привет, Гость.
Предлагаем пройти революционный курс по гитаре.
Подарок от PrimaNota.Ru, забирай!