PrimaNota.ru - самый крупный в мире бесплатный архив песенных текстов, аккордов, табулатур и нот


Ryan Keen - In My Mind - таба, видео

Регистрация Запомнить меня
Войти через:  Facebook Google Twitter Vk Yandex Mail.ru

Ryan Keen - In My Mind - таба, видео

Печатать
Просмотров: 285
-------------------------------------------------------------------------------
                             In My Mind - Ryan Keen
-------------------------------------------------------------------------------
Tabbed by: Alex Hosking
E-mail: alexhosking1@hotmail.co.uk
It's not exactly the same as the original but it's close enough to sound good and to
sing over relatively easily. Listen to the song for the strumming pattern in the verses. If
you need more help than using this and listening to the original email me and I can
probably do a really crap tutorial for you. Oh and sorry it's quite long winded. Enjoy!

Tuning: DADDAD
No Capo

Intro:
D|---0h2---2/4-------4-------4\2p0-----------------0-------0-----------------|
A|-------------------------------------------------0-------0-----------------|
D|---0h2---2/4-------4-------4\2p0-------------------------------------------|
D|-----------------------------------------0---------------------------------|
A|------------------------------------0h2-----2--------2---------------------|
D|----------------0-----0----------------------------------------------------|

D|---4\2p0----------------0--------0-----4\2p0---------0-------0-------------|
A|---------------------0-----------0-------------------0-------0-------------|
D|---4\2p0----------0--------------------4\2p0-------------------------------|
D|---------------------------------------------------------------------------|
A|---------------------------------------------------------------------------|
D|------------0h5-------------5-------------------0---------0--------0-------|

D|---0h2---2/4-------4-------4\2p0-----------------0-------0-----------------|
A|-------------------------------------------------0-------0-----------------|
D|---0h2---2/4-------4-------4\2p0-------------------------------------------|
D|-----------------------------------------0---------------------------------|
A|------------------------------------0h2-----2--------2---------------------|
D|----------------0-----0----------------------------------------------------|

D|---4\2p0----------------0--------0-----4h5p4p0---------0-------0-----------|
A|---------------------0-----------0---------------------0-------0-----------|
D|---4\2p0----------0--------------------------------------------------------|
D|---------------------------------------------------------------------------|
A|---------------------------------------------------------------------------|
D|------------0h5-------------5-------------------0---------0--------0-------|

Verse:
(Palm mute)
"We should get lost..."
D|-------x-x----------x-x-------x-x----------x-x-------x-x----------x-x-------x-x----------x-x---|
A|-------x-x----------x-x-------x-x----------x-x-------x-x----------x-x-------x-x----------x-x---|
D|-------x-x----------x-x-------x-x----------x-x-------x-x----------x-x-------x-x----------x-x---|
D|---0---x-x---0--0---x-x---4---x-x---4--4---x-x---5---x-x---5--5---x-x---0---x-x---0--0---x-x---|
A|---0---x-x---0--0---x-x---2---x-x---2--2---x-x---5---x-x---5--5---x-x---0---x-x---0--0---x-x---|
D|---0---x-x---0--0---x-x-------x-x----------x-x---5---x-x---5--5---x-x---0---x-x---0--0---x-x---|

"And we could go there..."
D|-------x-x----------x-x-------x-x----------x-x-------x-x----------x-x-------x-x----------x-x---|
A|-------x-x----------x-x-------x-x----------x-x-------x-x----------x-x-------x-x----------x-x---|
D|-------x-x----------x-x-------x-x----------x-x-------x-x----------x-x-------x-x----------x-x---|
D|---0---x-x---0--0---x-x---4---x-x---4--4---x-x---5---x-x---5--5---x-x---0---x-x---0--0---x-x---|
A|---0---x-x---0--0---x-x---2---x-x---2--2---x-x---5---x-x---5--5---x-x---0---x-x---0--0---x-x---|
D|---0---x-x---0--0---x-x-------x-x----------x-x---5---x-x---5--5---x-x---0---x-x---0--0---x-x---|

Chorus:
"I'm getting tired of the pouring rain darlin'"
D|--------0-------------0-------------0-------------0------------------------|
A|-----0-----0-------0-----0-------0-----0-------0-----0---------------------|
D|---------------------------------------------------------------------------|
D|---------------------------------------------------------------------------|
A|---------------------------------------------------------------------------|
D|---2-----------2-------------2-------------4-------------------------------|

"I need to leave the bitter taste of fear behind"
D|--------0-------------0-------------0-------------0------------------------|
A|-----0-----0-------0-----0-------0-----0-------0-----0---------------------|
D|---------------------------------------------------------------------------|
D|---------------------------------------------------------------------------|
A|---------------------------------------------------------------------------|
D|---5-----------5-------------5-------------5-------------------------------|

D|--------0-------------0-------------0-------------2/4\2p0------------------|
A|-----0-----0-------0-----0-------0-----0-----------------------------------|
D|--------------------------------------------------2/4\2p0------------------|
D|---------------------------------------------------------------------------|
A|---------------------------------------------------------------------------|
D|---0-----------0-------------0---------------------------------------------|

D|--------0-------------0-------------0-------------0------------------------|
A|-----0-----0-------0-----0-------0-----0-------0-----0---------------------|
D|---------------------------------------------------------------------------|
D|---------------------------------------------------------------------------|
A|---------------------------------------------------------------------------|
D|---0-----------0-------------0-------------0-------------------------------|

"But you're just out of sight and I could never change that"
D|--------0-------------0-------------0-------------0------------------------|
A|-----0-----0-------0-----0-------0-----0-------0-----0---------------------|
D|---------------------------------------------------------------------------|
D|---------------------------------------------------------------------------|
A|---------------------------------------------------------------------------|
D|---2-----------2-------------2-------------4-------------------------------|

"The truth is, you're only with me in my mind"
D|--------0-------------0-------------0-------------0------------------------|
A|-----0-----0-------0-----0-------0-----0-------0-----0---------------------|
D|---------------------------------------------------------------------------|
D|---------------------------------------------------------------------------|
A|---------------------------------------------------------------------------|
D|---5-----------5-------------5-------------5-------------------------------|

D|--------0-------------0-------------0-------------0------------------------|
A|-----0-----0-------0-----0-------0-----0-------0-----0---------------------|
D|---------------------------------------------------------------------------|
D|---------------------------------------------------------------------------|
A|---------------------------------------------------------------------------|
D|---0-----------0-------------0-------------0-------------------------------|

D|---------0-------------0-------------0-------------0-----------------------|
A|------0-----0-------0-----0-------0-----0-------0-----0--------------------|
D|---0-----------------------------------------------------------------------|
D|---------------------------------------------------------------------------|
A|---------------------------------------------------------------------------|
D|---0-----------0-------------0-------------0-------------------------------|

Verse:
"And there'd be no boundaries..."
D|-------x-x----------x-x-------x-x----------x-x-------x-x----------x-x-------x-x----------x-x---|
A|-------x-x----------x-x-------x-x----------x-x-------x-x----------x-x-------x-x----------x-x---|
D|-------x-x----------x-x-------x-x----------x-x-------x-x----------x-x-------x-x----------x-x---|
D|---0---x-x---0--0---x-x---4---x-x---4--4---x-x---5---x-x---5--5---x-x---0---x-x---0--0---x-x---|
A|---0---x-x---0--0---x-x---2---x-x---2--2---x-x---5---x-x---5--5---x-x---0---x-x---0--0---x-x---|
D|---0---x-x---0--0---x-x-------x-x----------x-x---5---x-x---5--5---x-x---0---x-x---0--0---x-x---|

"And we could go there..."
D|-------x-x----------x-x-------x-x----------x-x-------x-x----------x-x-------x-x----------x-x---|
A|-------x-x----------x-x-------x-x----------x-x-------x-x----------x-x-------x-x----------x-x---|
D|-------x-x----------x-x-------x-x----------x-x-------x-x----------x-x-------x-x----------x-x---|
D|---0---x-x---0--0---x-x---4---x-x---4--4---x-x---5---x-x---5--5---x-x---0---x-x---0--0---x-x---|
A|---0---x-x---0--0---x-x---2---x-x---2--2---x-x---5---x-x---5--5---x-x---0---x-x---0--0---x-x---|
D|---0---x-x---0--0---x-x-------x-x----------x-x---5---x-x---5--5---x-x---0---x-x---0--0---x-x---|

Chorus:
"I'm getting tired of the pouring rain darlin'"
D|--------0-------------0-------------0-------------0------------------------|
A|-----0-----0-------0-----0-------0-----0-------0-----0---------------------|
D|---------------------------------------------------------------------------|
D|---------------------------------------------------------------------------|
A|---------------------------------------------------------------------------|
D|---2-----------2-------------2-------------4-------------------------------|

"I need to leave the bitter taste of fear behind"
D|--------0-------------0-------------0-------------0------------------------|
A|-----0-----0-------0-----0-------0-----0-------0-----0---------------------|
D|---------------------------------------------------------------------------|
D|---------------------------------------------------------------------------|
A|---------------------------------------------------------------------------|
D|---5-----------5-------------5-------------5-------------------------------|

D|--------0-------------0-------------0-------------2/4\2p0------------------|
A|-----0-----0-------0-----0-------0-----0-----------------------------------|
D|--------------------------------------------------2/4\2p0------------------|
D|---------------------------------------------------------------------------|
A|---------------------------------------------------------------------------|
D|---0-----------0-------------0---------------------------------------------|

D|--------0-------------0-------------0-------------0------------------------|
A|-----0-----0-------0-----0-------0-----0-------0-----0---------------------|
D|---------------------------------------------------------------------------|
D|---------------------------------------------------------------------------|
A|---------------------------------------------------------------------------|
D|---0-----------0-------------0-------------0-------------------------------|

"But you're just out of sight and I could never change that"
D|--------0-------------0-------------0-------------0------------------------|
A|-----0-----0-------0-----0-------0-----0-------0-----0---------------------|
D|---------------------------------------------------------------------------|
D|---------------------------------------------------------------------------|
A|---------------------------------------------------------------------------|
D|---2-----------2-------------2-------------4-------------------------------|

"The truth is, you're only with me in my mind"
D|--------0-------------0-------------0-------------0------------------------|
A|-----0-----0-------0-----0-------0-----0-------0-----0---------------------|
D|---------------------------------------------------------------------------|
D|---------------------------------------------------------------------------|
A|---------------------------------------------------------------------------|
D|---5-----------5-------------5-------------5-------------------------------|

D|--------0-------------0-------------0-------------0------------------------|
A|-----0-----0-------0-----0-------0-----0-------0-----0---------------------|
D|---------------------------------------------------------------------------|
D|---------------------------------------------------------------------------|
A|---------------------------------------------------------------------------|
D|---0-----------0-------------0-------------0-------------------------------|

D|---------0-------------0-------------0-------------0-----------------------|
A|------0-----0-------0-----0-------0-----0-------0-----0--------------------|
D|---0-----------------------------------------------------------------------|
D|---------------------------------------------------------------------------|
A|---------------------------------------------------------------------------|
D|---0-----------0-------------0-------------0-------------------------------|

Solo bit:
D|---0h2---2/4-------4-------4\2p0-----------------0-------0-----------------|
A|-------------------------------------------------0-------0-----------------|
D|---0h2---2/4-------4-------4\2p0-------------------------------------------|
D|-----------------------------------------0---------------------------------|
A|------------------------------------0h2-----2--------2---------------------|
D|----------------0-----0----------------------------------------------------|

D|---4\2p0----------------0--------0-----4\2p0---------0-------0-------------|
A|---------------------0-----------0-------------------0-------0-------------|
D|---4\2p0----------0--------------------4\2p0-------------------------------|
D|---------------------------------------------------------------------------|
A|---------------------------------------------------------------------------|
D|------------0h5-------------5-------------------0---------0--------0-------|

D|---0h2---2/4-------4---4----4h5p4p0-----------------0-------0--------------|
A|-------------------0---0----------------------------0-------0--------------|
D|---0h2---2/4-------4---4----------------------------0-------0--------------|
D|-------------------0---0-------------------0--------0-------0--------------|
A|-------------------0---0--------------0h2-----2-----2---2---2--------------|
D|----------------0--0---0----------------------------0---0---0--------------|

D|---4\2p0-----------------0-------0-----4h5p4p0---------0-------0------0----|
A|-------------------------0-------0---------------------0-------0------0----|
D|---4\2p0-----------------0-------0---------------------0-------0-------0---|
D|---0---------------5--5--5-------5---------------------0-------0-------0---|
A|---0---------------5--5--5-------5---------------------0-------0-------0---|
D|---0---------0h5---5--5--5----5--5-----------------0---0---0---0---0---0---|

Chorus:
"I'm getting tired of the pouring rain darlin'"
D|---------------------------------------------------------------------------|
A|---------------------------------------------------------------------------|
D|---------------------------------------------------------------------------|
D|---2~-------------------------------------4--------------------------------|
A|---2~-------------------------------------4--------------------------------|
D|---2~-------------------------------------4--------------------------------|

"I need to leave the bitter taste of fear behind"
D|-----------------------------------------------------------------------------|
A|-----------------------------------------------------------------------------|
D|-----------------------------------------------------------------------------|
D|---5~-------------------------------------5----------------------------------|
A|---5~-------------------------------------5----------------------------------|
D|---5~-------------------------------------5----------------------------------|

D|-------------------12+-----------------5+----------------------------------|
A|-------------------------12+----------------5+-----------------------------|
D|---0~----------------------------------------------------------------------|
D|---0~----------------------------------------------------------------------|
A|---0~----------------------------------------------------------------------|
D|---0~-----------------------------0~---------------------------------------|

"But you're just out of sight and I could never change that"
D|---------------------------------------------------------------------------|
A|---------------------------------------------------------------------------|
D|---------------------------------------------------------------------------|
D|---2~-------------------------------------4--------------------------------|
A|---2~-------------------------------------4--------------------------------|
D|---2~-------------------------------------4--------------------------------|

"The truth is, you're only with me in my mind"
D|---------------------------------------------------------------------------|
A|---------------------------------------------------------------------------|
D|---------------------------------------------------------------------------|
D|---5~----------------------------------------------------------------------|
A|---5~----------------------------------------------------------------------|
D|---5~----------------------------------------------------------------------|

Final note:
D|---5+---|
A|---5+---|
D|---0~---|
D|--------|
A|--------|
D|---0~---|

************************************

| /   Slide up
| \   Slide down
| h   Hammer-on
| p   Pull-off
| x   Mute note
| ~   Let ring
| +   Harmonic

************************************
Добавлено: 07.11.2013
Другие материалы по этой песне:
  • Аккорды и текст

Страница создана 07.11.2013
http://primanota.ru/ryan-keen/in-my-mind-chords.htm
Привет, Гость.
Предлагаем пройти революционный курс по гитаре.
Подарок от PrimaNota.Ru, забирай!