PrimaNota.ru - самый крупный в мире бесплатный архив песенных текстов, аккордов, табулатур и нот


Ryan Huston - When You Think Of Me - аккорды и текст, видео

Регистрация Запомнить меня
Войти через:  Facebook Google Twitter Vk Yandex Mail.ru

Ryan Huston - When You Think Of Me - аккорды и текст, видео

Печатать
Просмотров: 110
When You Think Of Me
Ryan Huston
-------------------------------------------------------------------------------
                         WHEN YOU THINK OF ME - RYAN HUSTON
-------------------------------------------------------------------------------
Tabbed by:seraphimsam
Email:seraphimsam@gmail.com
Tuning:standard

HEY! There aren't many Ryan Huston tabs here so I thought I make one. This is my 
first tab and I hope you all gonna like it. write me with any problems.


   C#m   E5   B     A
e|--x----x----x-----x--|
B|--x----x----x-----x--|
G|--6----9----4-----2--|
D|--6----9----4-----2--|
A|--4----7----2-----0--|
E|--x----x----x-----0--|



intro:
e|--0------0------0--------0--0------0------0--------0| 
B|--2------9------4--------4--2------9------4--------4|
G|--x------x------x--------x--x------x------x--------x|  3x
D|--x------x------x--------x--x------x------x--------x|
A|--x------x------x--------x--x------x------x--------x|
E|--x------x------x--------x--x------x------x--------x|
There are some things I, need to say to you...


            A     E5        B
And I'll always fight for you
           A      E5        B
And I'll always fight for you

 A                        E5                B
I know our time was short , never thought I'd be
                   C#m  
Leaving whom I love, flying overseas
A                  E5                    B
It's just how it goes, nothing I must fear
A                  E5                  B
And I will miss you so, miss you everyday
                  C#m  
I would die for you, this I'm not afraid
A                  E5                  B
I will make you proud, its my solemn swear


             A     E5        B
Cause I'll always fight for you


chorus:
           C#m                   A
When you think of me, think the best of me
           E5               B
That's all I would want to know
           C#m                    A
That I will be with you, that's a promise too
           E5           B
Just don't ever let me go…


Verse 2:

A                  E5                    B
With all that I have done, I would do again
                  C#m  
From the good and bad, ‘til the very end
A              E5                  B
And I tell you now, I have no regrets.

A                  E5                       B
And every thought of mine, will be spent on you
                  C#m         
You're the only home that I ever knew
A                      E5                         B
I'll take your love with me, and always keep it safe

           A    E5        B
And I'll take it to, my grave



chorus



Bridge:
                 C#m                    E5   
Don't ever let me go, you'll always be okay
                         B                          A
I'm telling you, you're everything… I'd ever want to be
                 C#m                    E5   
Don't ever let me go, don't ever feel dismay
                         B                            A           A
I'm telling you, just think of me…. Whenever you're afraid…. You'll… Be…
  A
…here… with… me

A              E5          B
And I'll take it to, my grave
A              E5          B
And I'll take it to, my grave

chorus[x2]

outro
There are some things I, need to say to you You won't understand, but I hope you do...
e|--0------0------0----------x|
B|--2------9------4----------x|
G|--x------x------x----------9|
D|--x------x------x----------9|
A|--x------x------x----------7|
E|--x------x------x----------x|
Добавлено: 10.04.2012
Другие материалы по этой песне:
  • Аккорды и текст

Страница создана 10.04.2012
http://primanota.ru/ryan-huston/when-you-think-of-me-chords.htm
Привет, Гость.
Предлагаем пройти революционный курс по гитаре.
Подарок от PrimaNota.Ru, забирай!