PrimaNota.ru - самый крупный в мире бесплатный архив песенных текстов, аккордов, табулатур и нот


Ryan Huston - Tired - таба, видео

Регистрация Запомнить меня
Войти через:  Facebook Google Twitter Vk Yandex Mail.ru

Ryan Huston - Tired - таба, видео

Печатать
Просмотров: 141
Уроки эстрадного вокала в Санкт-Петербурге
----------------------------------------------------------------------------
                           Tired - Ryan Huston
----------------------------------------------------------------------------
www.ryanhuston.com
Tabbed by: Brandon G
Email: terre.gable334@wku.edu

Tuning: Standard (EADGBe)
Capo on 2nd fret.
Everything is relative to the capo.
This is a little different then what he put on his MySpace blog but I think it sounds better.

h  hammer-on
p  pull-off

Intro & Verses:
e|-------------------------------------------------------------|
B|-------0h1-------------0h1-3p1-0-------3-------------3-------|
G|-----2-----2---------0---------------0---0---0-----0---0---0-|
D|---2---------2-----2---------------0-------0-----0-------0---| Repeat
A|-0-------------0-3-------------------------------------------|
E|---------------------------------3-------------2-------------|

Chorus:
e|----------------------------------------------------0-------|
B|-------1--------------0--------------3------------3---3-----|
G|-----0---0----------0---0----------0---0--------2-------2---|
D|---2-------2------2-------2------0-------0----0-----------0-| 2x a chorus
A|-3-----------3----------------------------------------------|
E|----------------0-----------0--3-----------3----------------|

Thats pretty much the whole song.
============================================================================
Добавлено: 09.05.2012
Вам также может быть интересно:
Другие материалы по этой песне:
  • Аккорды и текст

Страница создана 09.05.2012
http://primanota.ru/ryan-huston/tired-chords.htm
Привет, Гость.
Предлагаем пройти революционный курс по гитаре.
Подарок от PrimaNota.Ru, забирай!