PrimaNota.ru - самый крупный в мире бесплатный архив песенных текстов, аккордов, табулатур и нот


Ryan Hudak - Your Grace - таба, видео

Регистрация Запомнить меня
Войти через:  Facebook Google Twitter Vk Yandex Mail.ru

Ryan Hudak - Your Grace - таба, видео

Печатать
Просмотров: 101
-------------------------------------------------------------------------------
                             SONG NAME - Band Name
-------------------------------------------------------------------------------
Tabbed by: Ryan Hudak
E-mail: guitarhudak@yahoo.com

On this song in the beginning, you play each chord. But your not strumming in the
beginning your picking the guitar. And in the beginning you pick the ( D , G ) string
together. after you pick those string's together you pick the ( D , B ) together. And 
that what you do in the beginning of the song.

Tuning:
Verse : 1 ( 2 # )
e|----------------------------------------------------------------------------------|
B|---------6----------8----------10----------8--------------------------------------|
G|----4-5--------6-7--------8-9---------6-7-----------------------------------------|
D|-3-----------5----------7-----------5---------------------------------------------|
A|----------------------------------------------------------------------------------|
E|----------------------------------------------------------------------------------|

e|-----------------------------------------------------------------------------------|
B|-------6--------8---------10---------8---------------------------------------------|
G|---4-5-----6-7-------8-9--------6-7------------------------------------------------|
D|-3-------5---------7----------5----------------------------------------------------|
A|-----------------------------------------------------------------------------------|
E|-----------------------------------------------------------------------------------|

This part of the song, is the chorus So this is where you start strumming. Play the
chorus to times and then someone, els play's the first verse, while your strumming. ( 2# )

Chorus : 1
e|-------------------2-------------------2-------------------------------------------|
B|----3----3------3---------3-----3----3---------------------------------------------|
G|-------------------2-------------------2-------------------------------------------|
D|--2---------------------2----------------------------------------------------------|
A|----3----2----------------3-----2--------------------------------------------------|
E|-----------3-----------------------3-----------------------------------------------|


Back to Verse : 1
e|-----------------------------------------------------------------------------------|
B|-------6---------8---------10---------8--------------------------------------------|
G|---4-5------6-7-------8-9--------6-7-----------------------------------------------|
D|-3--------5---------7----------5---------------------------------------------------|
A|-----------------------------------------------------------------------------------|
E|-----------------------------------------------------------------------------------|


Chorus : 2  ( 4# )
e|----------------2-------------------2----------------------------------------------|
B|---3-----3----3-------3------3----3------------------------------------------------|
G|----------------2-------------------2----------------------------------------------|
D|-2------------------2--------------------------------------------------------------|
A|---3-----2------------3------2-----------------------------------------------------|
E|-----------3--------------------3--------------------------------------------------|

That's the whole song i know it dose not look that long, but it really is. there will be
bass tab's coming to it soon also. I am hoping you are all enjoying my music. And
remember if you cant get my music for some reason, you should always be able to, but Im 
just saying if you cant Email me and i will send it to you. My Email in on my profile at 
the top.
Добавлено: 08.09.2013
Другие материалы по этой песне:
  • Аккорды и текст

Страница создана 08.09.2013
http://primanota.ru/ryan-hudak/your-grace-chords.htm
Привет, Гость.
Предлагаем пройти революционный курс по гитаре.
Подарок от PrimaNota.Ru, забирай!