PrimaNota.ru - самый крупный в мире бесплатный архив песенных текстов, аккордов, табулатур и нот


Ryan Cabrera - True Live - таба, видео

Регистрация Запомнить меня
Войти через:  Facebook Google Twitter Vk Yandex Mail.ru

Ryan Cabrera - True Live - таба, видео

Печатать
Просмотров: 183
Ryan Cabrera- True
Tune down half a step.
This is how he plays it live, if you've never heard the live version go here and listen 
you play. It actually sounds a lot better than the recorded version.

http://us.video.aol.com/video.index.adp?mode=1&pmmsid=1147749&referer=http%3A//search.aol.com/aolcom/video

Intro:
|-----------------------------------------------------------------|
|-----------------------------------------------------------------|
|---5------4---------0h2----4--------5-----4------0h2-----0-------|
|-----0--------0--------0------0-------0------0-------0-----------|
|-0----------------0---------------0------------------------------|
|---3---X--3-----X---3----X-3----X---3---X-3----X-3-----X-3-----X-|
        * Throughout the whole song he slaps his thumb on the low E string
Verse:
|----------------|       |----------------0-------------------0----|
|----------------|       |-------------0--------------------0------|
|---5-5---4------| 4 x's |----0h2------0---------(0)h2------0------|
|----------------|       |--------0--------------------0-----------|
|-0--------------|       |-0--2----------------0--2----------------|
|---3-3-X-3----X-|       |----------X--0----X------------X--0----X-|
“I won't talk…”           “You belong with me…”

Pre-Chorus:
|-------0--------------0--------------0------------0------|       |-0----|
|-3-------------7---------7----8--------8----7------------|       |------|
|---0-------------0--------------0-------------0----------| 2 x's |------|
|---------------------------------------------------------|       |------|
|-3-----3-----0-5------5-------7------7------5-----5------|       |-3----|
|-----X-----X-------X--------X-----X-------X-----X------X-|       |------|
          “I'm weak…”                                       “Faster…”

Chorus:
|-----3----3------------3----3-----------3----3-----------3----3------|
|-----3----3------------3----3-----------3----3-----------3----3------|
|---------------------------------------------------------------------|
|--------------------------------------2------2-----------------------|
|-0----------------0-----------------0---------------0--3------3------|
|---3---X--3----X----2----X--2----X--------X-------X---------X------X-|
“I've waited all my life…”

Post-Chorus:
|--------7---------|  (on the second time… hit the strings with your thumb)
|----0---8-------4-|
|----0-----------5-|
|------------------|
|-0-6----7-------3-|
|------X-----X-----|
   “All my life I've waited…”

Interlude:
|-------------------------------------0---0-----------------5---5------5--5-|
|-5---5---7---8---0-5---5---7---8---0---------7---8---0-0---5---5------5--5-|
|----------------------------------------------------------------------0--0-|
|---------------------------------------------------------------------------|
|-7-7---7---7---7---6-6---6---6---6---5-5---5---5---5---4-4---4-------------|
|------X---X---X---------X---X---X---------X---X---X------------------------|
“I know when I go…”

|-3----3----3--------------------3-3-3-3-3-3-3-3-3-3-3-3-3-3-----------|
|-3----3----3--------------------3-3-3-3-3-3-3-3-3-3-3-3-3-3-----------|
|-0----0----2--------------------0-0-0-0-0-0-0-0-0-0-0-0-0-0-----------|
|-2----0----0--------------------------2-2-2-2-2-2-2-2-2-2-2-----------|
|-0----2----0------------------------------0-0-0-0-0-0-0-0-0-----------|
|------3----3--------------------------------------3-3-3-3-3-----------|
“The way that's true…”            “Way that's true, way that's true yeah”
                                  (Slowly come in when you play this part)


|-3--3-3-3-3-3--3-3--3--3--3-3-3--3-3-3-3-3--3-3--3--3--3-3-|
|-3--3-3-3-3-3--3-3--3--3--3-3-3--3-3-3-3-3--3-3--3--3--3-3-|
|-0--0-0-0-0-0--0-0--0--0--0-0-2--2-2-2-2-2--2-2--2--2--2-2-|
|-0--0-0-0-0-0--0-0--0--0--0-0-2--2-2-2-2-2--2-2--2--2--2-2-|
|------------------------------0--0-0-0-0-0--0-0--0--0--0-0-|
|-3--3-3-3-3-3--3-3--3--3--3-3------------------------------|
 “All my life…”

|-3--3-3-3-3-3--3-3--3--3--3-3-3--3-3-3-3-3--3-3--3--3--3-3-|
|-3--3-3-3-3-3--3-3--3--3--3-3-3--3-3-3-3-3--3-3--3--3--3-3-|
|-0--0-0-0-0-0--0-0--0--0--0-0-2--2-2-2-2-2--2-2--2--2--2-2-|
|------------------------------0--0-0-0-0-0--0-0--0--0--0-0-|
|-3--3-3-3-3-3--3-3--3--3--3-3------------------------------|
|------------------------------3--3-3-3-3-3--3-3--3--3--3-3-|

|--------3----------3-------|
|----4---------------3------|
|---------------------0-----|
|------5---------------0----|
|-3---------------------2---|
|------------------------3--|
       “This is true.”
Добавлено: 08.06.2012
Другие материалы по этой песне:
  • Аккорды и текст

Страница создана 08.06.2012
http://primanota.ru/ryan-cabrera/true-live-chords.htm
Привет, Гость.
Предлагаем пройти революционный курс по гитаре.
Подарок от PrimaNota.Ru, забирай!