PrimaNota.ru - самый крупный в мире бесплатный архив песенных текстов, аккордов, табулатур и нот


Ryan Cabrera - Spanish Song - аккорды и текст, видео

Регистрация Запомнить меня
Войти через:  Facebook Google Twitter Vk Yandex Mail.ru

Ryan Cabrera - Spanish Song - аккорды и текст, видео

Печатать
Просмотров: 117
Spanish Song
Ryan Cabrera
Author : Ryan Cabrera
Album : EP Elm Street
Tabbed by  Damien Garzilli - dam_rpgheaven@hotmail.com

-------------------------------------------------
As usual for Ryan Cabrera tabs : Tune Down 1/2 Step ;)

Chords used :
	Am : 0 0 2 2 1 0 0
	C : 0 3 2 0 1 0
	Em : 0 2 2 0 0 0
	F : x 3 3 2 1 1
	Fm : x 3 3 1 1 1
	G : 3 2 0 0 3 3

	> : strum down
	< : strum up

I did not find this tab anywhere on the Internet so I tabbed it :)
Really easy, even the little solo is really easy-to-play if u get the good strum (and i 
u a lot i guess ^^) !

Hope u'll have a good time to play and sing it =)

ps : if u find a good saxophone player....
-------------------------------------------------
[ Intro ]

Am F G Em (x2)

-------------------------
[ Verse 1 ]

Am
                 F              G
How ‘bout we start all over
        Em                        Am
And change our lives for good
             F                       G
Can we make this last forever now
                Em                       Am
Well we'll make it I know we would
               F                          G
If I could only take back that day now
        Em                            Am
And wash all those feelings away
     F            G
So far away now
Em                       Am
So far away from you
   F                  G              Em
Youuu...are so beautiful to me
F                 G
I can't even help myself
F                 G
I can't breath until you know that

-------------------------
[ Chorus 1 ]

C                       G
Youuu…are the one
              F                G              C
Your the only one I want
                   G                     F         G
You are the one that I dream of
Don't you know that
C                        G
Youuu…can see now
                F                  G
You mean everything to me
Yeah you do
C                 G                     F          Fm
You are the one that I dream of
The only one I need

C G
                      F
The only one I need
G                         C           G                          F            Fm
The only one I need now...la la la...yeah, yeah yeah

-------------------------
[ Verse 2 ]

Am
                F                        G
Oh how about we take our time now
         Em                          Am
Don't push me out the door
                F
I just can't live thinking
             G
We will never love
         Em                      Am
If our love is not for sure
                     F                            G
Why can't you believe me when I say
     Em                    Am
I'm sorry for the way
         F             G        Em      Am
I hurt you, I'm sorry
     F                 G              Em
Youuu…are so beautiful to me
  F               G
I can't even help myself
  F                 G
I can't breath until you know that

-------------------------
[ Chorus 2 ]

C                       G
Youuu…are the one
              F                G                 C
Your the only one I want
                   G                     F         G
You are the one that I dream of
Don't you know that
C                        G
Youuu…can see now
                F                  G
You mean everything to me
Yeah you do
C                 G                     F          Fm
You are the one that I dream of
The only one I need

C G
                      F
The only one I need
G                         C           G                          F            Fm
The only one I need now...la la la...yeah, yeah yeah

-------------------------
[ Bridge ]

C G F G (x4) during the saxophone solo

-------------------------
[ Solo ]


  >  <  <  <  <  <  >    < > <
--8--8-10-10-8--8--8--|-x-x-x----|
--8--8--8--8--8--8--8--|-x-x-x---|
--9--9--9--9--9--9--9--|-x-x-x---|
--10-10-10-10-10-10--|-x-x-x-----|
--x--x--x--x--x--x--x--|-x-x-x---|
--x--x--x--x--x--x--x--|-x-x-x---|

  > < < < < < >   < > <
--3-3-5-5-3-3-3-|-x-x-x--|
--3-3-3-3-3-3-3-|-x-x-x--|
--4-4-4-4-4-4-4-|-x-x-x--|
--5-5-5-5-5-5-5-|-x-x-x--|
--x-x-x-x-x-x-x-|-x-x-x--|
--x-x-x-x-x-x-x-|-x-x-x--|

  > < < < < < >   < > <
--0-0-1-1-0-0-0-|-x-x-x--|
--1-1-1-1-1-1-1-|-x-x-x--|
--2-2-2-2-2-2-2-|-x-x-x--|
--3-3-3-3-3-3-3-|-x-x-x--|
--x-x-x-x-x-x-x-|-x-x-x--|
--x-x-x-x-x-x-x-|-x-x-x--|

  > < < < < < >   < > <
--3-3-5-5-7-7-7-|-x-x-x--|
--3-3-3-3-3-3-3-|-x-x-x--|
--4-4-4-4-4-4-4-|-x-x-x--|
--5-5-5-5-5-5-5-|-x-x-x--|
--x-x-x-x-x-x-x-|-x-x-x--|
--x-x-x-x-x-x-x-|-x-x-x--|

  >  <  <  <  <  <  >    < > <
--8--8-10-10-8--8--8--|-x-x-x----|
--8--8--8--8--8--8--8--|-x-x-x---|
--9--9--9--9--9--9--9--|-x-x-x---|
--10-10-10-10-10-10--|-x-x-x-----|
--x--x--x--x--x--x--x--|-x-x-x---|
--x--x--x--x--x--x--x--|-x-x-x---|

  > < < < < < >   < > <
--3-3-5-5-3-3-3-|-x-x-x--|
--3-3-3-3-3-3-3-|-x-x-x--|
--4-4-4-4-4-4-4-|-x-x-x--|
--5-5-5-5-5-5-5-|-x-x-x--|
--x-x-x-x-x-x-x-|-x-x-x--|
--x-x-x-x-x-x-x-|-x-x-x--|

  > < < < < < >   < > <
--0-0-1-1-3-3-3-|-x-x-x--|
--1-1-1-1-1-1-1-|-x-x-x--|
--2-2-2-2-2-2-2-|-x-x-x--|
--3-3-3-3-3-3-3-|-x-x-x--|
--x-x-x-x-x-x-x-|-x-x-x--|
--x-x-x-x-x-x-x-|-x-x-x--|

  > < < < < < >   < > <
--3-3-5-5-7-7-7-|-x-x-x--|
--3-3-3-3-3-3-3-|-x-x-x--|
--4-4-4-4-4-4-4-|-x-x-x--|
--5-5-5-5-5-5-5-|-x-x-x--|
--x-x-x-x-x-x-x-|-x-x-x--|
--x-x-x-x-x-x-x-|-x-x-x--|

-------------------------
[ End of Bridge ]

C G F G (x2)

Am
    F                   G              Em
Youuu…are so beautiful to me
 F                 G
I can't even help myself
 F                 G
I can't breath until you know that
 F                 G
I can't even help my self
 F                G/No Chord
I can't breath until you know that

-------------------------
[ Chorus 3 ]

C                       G
Youuu…are the one
              F                G                              C
Your the only one I want (Only one I want)
                   G                     F                      G
You are the one that I dream of (I dream of)
Don't you know that
C                        G
Youuu…can see now
                F                  G
You mean everything to me (Everything to me)
Yeah you do
C                 G                     F          Fm
You are the one that I dream of
The only one I need

-------------------------------------------------
[ The End ]

Enjoy,
cya =)
Добавлено: 19.06.2013
Другие материалы по этой песне:
  • Аккорды и текст

Страница создана 17.06.2012
http://primanota.ru/ryan-cabrera/spanish-song-chords.htm
Привет, Гость.
Предлагаем пройти революционный курс по гитаре.
Подарок от PrimaNota.Ru, забирай!