PrimaNota.ru - самый крупный в мире бесплатный архив песенных текстов, аккордов, табулатур и нот


Ryan Cabrera - Hit Me With Your Light - текст песни, таба, видео

Регистрация Запомнить меня
Войти через:  Facebook Google Twitter Vk Yandex Mail.ru

Ryan Cabrera - Hit Me With Your Light - текст песни, таба, видео

Печатать
Просмотров: 77
Song: Hit Me With Your light
Artist: Ryan Cabrera
Tuning: 1/2 down

NOTE: if u play 1/2 step down- capo 7th- if u play standard, capo 6th fret

Intro\Verse:
e|--x-x-x-x-x-x-x-x-x-x-x-x-x-x-x-x-x-x-x-x-x-x-x-x-x-x-x-x-x-x-x-x-x-x-x-|
b|--1-1-1-1-1-1-1-1-1-1-1-1-1-1-1-1-1-1-1-1-1-1-1-1-1-1-1-1-x-x-x-x-x-x-x-|
G|--0-0-0-0-0-0-0-0-0-0-0-0-0-0-0-0-0-0-0-0-0-0-0-0-0-0-0-0-0-0-0-0-0-0-0-|
D|--2-2-2-2-2-2-2-3-3-3-3-3-3-3-2-2-2-2-2-2-2-0-0-0-0-0-0-0-2-2-2-2-2-2-2-|
A|--0-0-0-0-0-0-0-0-0-0-0-0-0-0-3-3-3-3-3-3-3-3-3-3-3-3-3-3-2-2-2-2-2-2-2-|
E|--x-x-x-x-x-x-x-x-x-x-x-x-x-x-x-x-x-x-x-x-x-x-x-x-x-x-x-x-0-0-0-0-0-0-0-|

Intro/verse cont...
e|-x-x-x-x-x-x-x-0-|
b|-x-x-x-x-x-x-x-0-|
G|-0-0-0-0-0-0-0-0-|
D|-0-0-0-0-0-0-0-0-|
A|-2-2-2-2-2-2-2-0-|
E|-3-3-3-3-3-3-3-3-|

(as u can see..i play about each chord in the verse about 7 or 8 times...i do a slightly
downstroke while doing those chords...thats just how i play it and i wrote the chords
there how many times i play them each also..i dont think i'm gonna do that in the 
the chorus has some palm muteing and a series of up and down strokes..so it would
harder for me to type out.)

Chorus:
e|--0----0----0----0--|
b|--1----1----1----0--|
G|--0----2----0----0--|
D|--2----3----2----0--|
A|--0----3----3----2--|
E|--x----x----x----3--|

(do that part twice...)

Chorus cont...
e|--0----0----0----0----0----0--|
b|--1----0----1----0----1----0--|
G|--2----0----0----0----2----0--|
D|--3----0----2----0----3----0--|
A|--3----2----0----2----3----2--|
E|--x----3----x----3----x----3--|

(near the end of the chorus when he starts to say "lord help me carry on, will you be
when i'm gone"...thats where u play this second part.)

Pre verse:
e|--0---0--|
b|--0---0--|
G|--5---2--|
D|--5---2--|
A|--0---0--|
E|--x---x--|

[VERSE] (play verse again)

BRIDGE:
e|----------1----------------1----------------1----------------1-------|
b|------3-----3---3------3-----3---3------3-----3---3------3-----3---3-|
G|----2---2-----2------0---0-----0------0---0-----0------0---0-----0---|
D|--3----------------2-------------------------------------------------|
A|------------------------------------3----------------2---------------|
E|---------------------------------------------------------------------|

(the picking in the bridge is quite fast...in order to make it easier..i just keep my
in the Dm chord position the whole way through..and the only finger u really move is ur
one.)

After the bridge he the chorus again...so that is basically the whole tab..enjoy...feel
to leave me a message on myspace if u have one. my myspace
simple.
Добавлено: 02.06.2013
Другие материалы по этой песне:
  • Аккорды и текст

Страница создана 22.06.2012
http://primanota.ru/ryan-cabrera/hit-me-with-your-light-chords.htm
Привет, Гость.
Предлагаем пройти революционный курс по гитаре.
Подарок от PrimaNota.Ru, забирай!