PrimaNota.ru - самый крупный в мире бесплатный архив песенных текстов, аккордов, табулатур и нот


Ryan Cabrera - From The Start - текст песни, таба, видео

Регистрация Запомнить меня
Войти через:  Facebook Google Twitter Vk Yandex Mail.ru

Ryan Cabrera - From The Start - текст песни, таба, видео

Печатать
Просмотров: 106


Artist: Ryan Cabrera
Song: From the Start


Any Q's IM me at guitars000.  I dunno if the Intro is correct, so if any of you
have any suggestions on how this tab could be better, IM me.

Intro:

e|--5----x----3----1---|
b|--5----x----3----1---|
G|--5----x----4----2---|
D|--7----5----5----3---|
A|--7----6----5----3---|
E|--5----4----3----1---|

Chorus:

e|--0----0----0----3----1---|
b|--1----1----1----3----1---|
G|--0----1----2----0----2---|
D|--2----2----2----0----3---|
A|--3----3----0----2----3---|
E|--0----0----0----3----0---|

Bridge:

e|--1----x----3----x----0----3----1--|
b|--1----x----3----x----1----3----1--|
G|--2----2----4----4----2----0----2--|
D|--3----3----5----5----2----0----3--|
A|--3----3----5----5----0----2----3--|
E|--1----2----3----4----0----3----1--|
Добавлено: 10.02.2014
Другие материалы по этой песне:
  • Аккорды и текст

Страница создана 28.02.2012
http://primanota.ru/ryan-cabrera/from-the-start-chords.htm
Привет, Гость.
Предлагаем пройти революционный курс по гитаре.
Подарок от PrimaNota.Ru, забирай!