PrimaNota.ru - самый крупный в мире бесплатный архив песенных текстов, аккордов, табулатур и нот


Ryan Adams - The Fools We Are As Men - аккорды и текст, таба, видео

Регистрация Запомнить меня
Войти через:  Facebook Google Twitter Vk Yandex Mail.ru

Ryan Adams - The Fools We Are As Men - аккорды и текст, таба, видео

Печатать
Просмотров: 100
The Fools We Are As Men
Ryan Adams
Capo 3rd fret

   Intro:

   ------

   Am       Am/E
e----------------------
B------1---------1-----
G--------2---------2--- x3
D----2-----2---2-----2-
A--0-------------------
E------------0---------

   Intro Part 2:

   ------
   
   Am                              Am/E      Am      Am/E      Am
e ------------------------------------------------------------------------
B ------1-----0^1-------------1--------1--------1---------1---------1-----
G --------2---------2----0^2-----2-------2--------2---------2-----------2-
D ----2-----2-----2----2-------2-----2-----2---2----2-0-0-----0-2-----2---
A --0---------0----------0-------------------0------------------0---------
E ---------------------------------0------------------0-------------------



   Picking:
   --------
   Am        Am/E      Am         G           C                 D
e --------------------------------------------------------0---------0--------------
B ------1---------1---------1-------------------1-------------1-------3------------
G --------2---------2---------2-------0-----------0---0-----------2-----2----------
D ----2-----2---2-----2---2-----2---0-----0---2-----2---2---2---0------------------
A --0-------------------0---------2---------3------------------------------3--2----
E ------------0-------------------------3----------------------------------------3-
   Lord,    Lord,                can   you haer        me,     oh,

           
Chords:

Am    Am/E  Am  G   C        D
Lord, Lord, can you hear me? Oh, I am in pain
Am    G     C                    D
And I don't have a woman left to blame anymore
    Am   G       D
She left me this morning
   E            Am      G           C
So why does the wind go howling her name?
         Am          G        D
Are your angels just children laughing insane
       E                                Am
At the fools we are as men? Go count me in


-
INTRO PART 2  - With Oboe and Mandolin
-


Am    Am/E  Am  G   C        D
Lord, Lord, can you hear me? Oh, I am not well
Am    G     C                    D
And I spend all my time here in this cell of my heart
   Am        G       D
An actor not given a part
   E            Am      G           C
So why does the wind go howling her name?
         Am          G        D
Are your angels just children laughing insane
       E                                Am
At the fools we are as men? Go count me in


-
INTRO PART 2  - With Oboe and Mandolin
-


Am    Am/E  Am      G        C       D
Lord, Lord, take my hand and please, please, lead me through
Am     G      C                    D
I have no one and I am counting on you, now that I'm old
           Am        G     D
And I'm so scared of dying alone
    E            Am      G           C
And how does the wind go howling her name?
         Am          G        D
Are your angels just children laughing insane
       E                                Am
At the fools we are as men? Go count me in
Добавлено: 01.10.2015
Другие материалы по этой песне:
  • Аккорды и текст

Страница создана 25.05.2012
http://primanota.ru/ryan-adams/the-fools-we-are-as-men-chords.htm
Привет, Гость.
Предлагаем пройти революционный курс по гитаре.
Подарок от PrimaNota.Ru, забирай!