PrimaNota.ru - самый крупный в мире бесплатный архив песенных текстов, аккордов, табулатур и нот


Ryan Adams - Magick - текст песни, таба, видео

Регистрация Запомнить меня
Войти через:  Facebook Google Twitter Vk Yandex Mail.ru

Ryan Adams - Magick - текст песни, таба, видео

Печатать
Просмотров: 98
Artist: Ryan Adams
Song: Magick
Tabbed by: Arabola85

 Only three different guitar parts to the song, I've tabbed them all in order to 
give the structure of the song.

  INTRO
   
||------------|-----------|-----------|--------------||
||o-----------|-----------|-----------|-------------o||
||------------|-----------|-----------|--------------||
||--4-4-------|-7-7-------|-----------|-9-9---9-9----||
||o-2-2-------|-5-5-------|-7-7-------|-7-7---7-7---o||
||------------|-----------|-5-5-------|--------------||


   VERSE
 
||------------|-----------|-----------|--------------||
||o-----------|-----------|-----------|-------------o||
||------------|-----------|-----------|--------------||
||--4-4-------|-7-7-------|-----------|-9-9---9-9----||
||o-2-2-------|-5-5-------|-7-7-------|-7-7---7-7---o||
||------------|-----------|-5-5-------|--------------||


   BRIDGE
 
||------------|-----------|-----------|--------------||
||o-----------|-----------|-----------|-------------o||
||------------|-----------|-----------|--------------||
||--4-4-------|-7-7-------|-----------|-9-9---9-9----||
||o-2-2-------|-5-5-------|-7-7-------|-7-7---7-7---o||
||------------|-----------|-5-5-------|--------------||


   CHORUS

||------------------|-----------------|-----------------|------------------||
||o-----------------|-----------------|-----------------|-----------------o||
||------------------|-----------------|-----------------|------------------||
||--4-4-4-4-4-4-4-4-|-----------------|-7-7-7-7-7-7-7-7-|------------------||
||o-2-2-2-2-2-2-2-2-|-5-5-5-5-5-5-5-5-|-5-5-5-5-5-5-5-5-|-7-7-7-7-7-7-7-7-o||
||------------------|-3-3-3-3-3-3-3-3-|-----------------|-5-5-5-5-5-5-5-5--||


   VERSE

||------------|-----------|-----------|--------------||
||o-----------|-----------|-----------|-------------o||
||------------|-----------|-----------|--------------||
||--4-4-------|-7-7-------|-----------|-9-9---9-9----||
||o-2-2-------|-5-5-------|-7-7-------|-7-7---7-7---o||
||------------|-----------|-5-5-------|--------------||


   CHORUS

||------------------|-----------------|-----------------|------------------||
||o-----------------|-----------------|-----------------|-----------------o||
||------------------|-----------------|-----------------|------------------||
||--4-4-4-4-4-4-4-4-|-----------------|-7-7-7-7-7-7-7-7-|------------------||
||o-2-2-2-2-2-2-2-2-|-5-5-5-5-5-5-5-5-|-5-5-5-5-5-5-5-5-|-7-7-7-7-7-7-7-7-o||
||------------------|-3-3-3-3-3-3-3-3-|-----------------|-5-5-5-5-5-5-5-5--||


   BREAK
                                                                           3x
||------------------|-----------------|-----------------|------------------||
||o-----------------|-----------------|-----------------|-----------------o||
||------------------|-----------------|-----------------|------------------||
||------------------|-7-7-7-7-7-7-7-7-|-----------------|------------------||
||o-5-5-5-5-5-5-5-5-|-5-5-5-5-5-5-5-5-|-7-7-7-7-7-7-7-7-|--9-9-9-9-9-7-7--o||
||--3-3-3-3-3-3-3-3-|-----------------|-5-5-5-5-5-5-5-5-|--7-7-7-7-7-5-5---||


|-----------------|-----------------|-----------------|-----------------|
|-----------------|-----------------|-----------------|-----------------|
|-----------------|-----------------|-----------------|-----------------|
|-----------------|-7-7-7-7-7-7-7-7-|-----------------|-----------------|
|-5-5-5-5-5-5-5-5-|-5-5-5-5-5-5-5-5-|-7-7-7-7-7-7-7-7-|-7-7-7-7-7-7-7-7-|
|-3-3-3-3-3-3-3-3-|-----------------|-5-5-5-5-5-5-5-5-|-5-5-5-5-5-5-5-5-|


 OUTRO
 
|-----------|-----------|-----------|--------------|
|-----------|-----------|-----------|--------------|
|-----------|-----------|-----------|--------------|
|-4-4-------|-7-7-------|-----------|-9-9---9-9----|
|-2-2-------|-5-5-------|-7-7-------|-7-7---7-7----|
|-----------|-----------|-5-5-------|--------------|


Добавлено: 23.02.2012
Другие материалы по этой песне:

Страница создана 23.02.2012
http://primanota.ru/ryan-adams/magick-chords.htm
Привет, Гость.
Предлагаем пройти революционный курс по гитаре.
Подарок от PrimaNota.Ru, забирай!