PrimaNota.ru - самый крупный в мире бесплатный архив песенных текстов, аккордов, табулатур и нот


Ryan Adams - Do Miss America - текст песни, таба, видео

Регистрация Запомнить меня
Войти через:  Facebook Google Twitter Vk Yandex Mail.ru

Ryan Adams - Do Miss America - текст песни, таба, видео

Печатать
Просмотров: 102
-------------------------------------------------------------------------------
                             Do Miss America- Ryan Adams
-------------------------------------------------------------------------------
Tabbed by: djbeatster
Email: djbeatster@hotmail.com

Tuning: Standard (I think I'm pretty close to what is going on – I thought I should 
something to this site)


e|-----------------------------------------------------------------------------|
B|------------ ----------------------------------------------------------------|
G|-- -- - -- 4---4---4---2--2--2-----------------------------------------------|
D|---2--2--2--4---4---4---2--2--2----------------------------------------------|
A|---2--2--2--2---2---2---0--0--0----------------------------------------------|
E|---0--0--0-------------------------------------------------------------------|

e|-----------------------------------------------------------------------------|
B|-----------2—----------------------------------------------------------------|
G|- -- -- ---2-----------------------------------------------------------------|
D|-2--2--2---2-----------------------------------------------------------------|
A|-2--2--2---0-----------------------------------------------------------------|
E|-0--0--0---------------------------------------------------------------------|

e|---------------------------------------------------------------------------------|
B|---------------------------------------------------------------------------------|
G|---------------------6------------2----------------------------------------------|
D|----------4-------6------------2-------------------------------------------------|
A|-------4-------4------------0----------------------------------------------------|
E|-0--2-------0------------0-------------------------------------------------------|

e|----------------------------------------------------------------------------------|
B|--9----4----6----4---2------------------------------------------------------------|
G|--9----4----6----4---2------------------------------------------------------------|
D|--9----4----6----4---2------------------------------------------------------------|
A|--7----2----4----2---0------------------------------------------------------------|
E|----------------------------------------------------------------------------------|

e|---------------------------------------------------------------------------------|
B|---------------------------------------------------------------------------------|
G|---------------------6------------2----------------------------------------------|
D|----------4-------6------------2-------------------------------------------------|
A|-------4-------4------------0----------------------------------------------------|
E|-0--2-------0------------0-------------------------------------------------------|




| /  slide up
| \  slide down
| h  hammer-on
| p  pull-off
| ~  vibrato
| +  harmonic
| x  Mute note
===============================================================================
Добавлено: 12.07.2012
Другие материалы по этой песне:

Страница создана 19.03.2012
http://primanota.ru/ryan-adams/do-miss-america-chords.htm
Привет, Гость.
Предлагаем пройти революционный курс по гитаре.
Подарок от PrimaNota.Ru, забирай!