PrimaNota.ru - самый крупный в мире бесплатный архив песенных текстов, аккордов, табулатур и нот


Ry Cooder - She Is Leaving The Bank - таба, видео

Регистрация Запомнить меня
Войти через:  Facebook Google Twitter Vk Yandex Mail.ru

Ry Cooder - She Is Leaving The Bank - таба, видео

Печатать
Просмотров: 100
Artist: RY COODER
Song : She^Òs Leaving The Bank          
Album: Paris, Texas
Tabbed by: nicolasberry@yahoo.fr


Another great song by Ry Cooder. You can hear it on the soundtrack of
the fabulous movie 'Paris, Texas' by Wim Wenders.
I tabbed this all by ear, so this is my own work and my own
interpretation.


You^Òll have to listen to the song to get the rhythm. I suggest you to
watch the movie to understand the feeling of the music. It should help
to get the right 'mood'.
Hope you enjoy!


Tuning (from low to high): DADF#AD (open D) 
Played one half-step down (DbAbDbFAbDb) fits more to the original.
Don^Òt forget the bottleneck^Å

/ - slide up
\ - slide down
p - pull off
''^Ö mute that note
~ - let the note ring


   '00 sec.
Db|---------0------2/4~---/5~---/7~----7~-------7--0--4/5-5~-
Ab|------0---0------------------------0---0------------------
Db|-----0-----0----------------------0-----0-----------------
F |----0-------0--------0-----0-----0-------0----------------
Ab|---0--------------------------------------0---------------
Db|--0-------------------------------------------------------
 
				  '28 
   -----5~--3/5\3/5~p0-----0-------0-0------------0----------
   ----5------------------0--0----------3/5~-----0--0-----0--
   ---5------------------0----0-----------------0----0---0---
   --5------------------0------0---------------0--------0----
   -----------------------------0-------------0--------0-----
   ----------------------------------------------------------

		   '36 
   --10/12\10/12~~-----12p0-------------5~----0^×-3/5-5~------
   -------------------0----------------5---------------------
   ------------------0-------------5--5----------------------
   -----------------0------------5---5-----------------------
   ----------------0---------3/5-----------------------------
   ----------------------------------------------------------


   -------5~--4-0--------0-----------------------------------
   ------5-------------0--0----------------------------------
   -----5-------------0----0---------------------------------
   ----5-------------0------0--------------------------------
   ---5-------------0----------------------------------------
   ----------------------------------------------------------
    '51 
   ----------0--------
   -----------0-------
   ------(0)---0------     X4 
   ----(0)------0-----     the third time louder
   --(0)---------0----   
   -------------------

   then :
   --0------------
   ----0----------
   -----(0)------- X4
   -----(0)--0-0--
   ---------------
   ---------------


   --0-----------0-------------0------------0----------------
   ----0-----------0-------------0------------0--------------
   ------1-----------1-------------0------------0------------
   --------0-0---------0-0---------0--0-0-------0--0-0-------
   ----------------------------------------------------------
   ----------------------------------------------------------


   1'20 
----------------
----0------0----  very
------1---0--1--  slightly
--0------0------
----------------
----------------

--0------------
----0----------
-----(0)------- X4
-----(0)--0-0--
---------------
--------------- 



		     1'33
   ------------------------------------------0---------------
   ---------0------------0----------------------0---0--------
   ----0--------0------0---0---0-1---3-----0------0----------
   --0--------0------0-------0-----0-----0-------------------
   ----------------------------------------------------------
   ------0---------------------------0-----------------------

				   1'43
   -------------------0--------------------------------------
   ----------------------0---0--------------------------0----
   ----0---1---3----0------0--------0---1---3----0----0------
   --0---0---0----0---------------0---0---0----0----0--------
   ----------------------------------------------------------
   ------------0----------------------------0----------------

		   1'48
   ----------------------------------------------------------
   ----------------------------------------------------------
   ----0---1---3-----0^×------^×------------------------0------
   --0---0---0-----0----5/7p0-5/7-\5~--/5\3--0-0---0-----0-0-
   -----------------------------------------------0----------
   ------------0---------------------------------------------


   1'54
   ---------------------0---0----------------------0---0-----
   ----------------------------------------------------------
   ----0---1---3-----0----0-------0---1---3-----0----0-------
   --0---0---0-----0------------0---0---0-----0--------------
   ----------------------------------------------------------
   ------------0--------------------------0------------------

   2'03
   -----------------------0----------------------------------
   ---------------------------------------------0------0-----
   ----0---1---3-----0------0-----0---1---3-------0------0---
   --0---0---0-----0----0-------0---0---0-----0------0-------
   ----------------------------------------------------------
   ------------0--------------------------0------------------

   2'10
   -----------------------------------0----------------------
   --0---------------------------------------0---------------
   ----0-------0---1---3-----0------0------0-----------------
   ----------0---0---0-----0---0--0------0-----0-------------
   ------0---------------------------------------------------
   --------------------0-------------------------------------
    
   2'15
   ----------------/3-2-0--------------------------/4-0-0----
   --------------------------0-------------------------------
   ----1---3----0----------0---0-------1---3----0------------
   --0---0----0------------------0---0---0----0--------------
   ----------------------------------------------------------
   --------0-------------------------------0-----------------

			      2'25
   --------------/3------------------------------------------
   ----0-2---0------/5-5~----0-------------------------------
   --------------------------------1---3---------------------
   --0-----0-------------------0-0---0--------0--------------
   ---------------------------------------2/3---/5~----------
   ----------0-------------------------0---------------------

   2'30
   --------------0---------------------
   -----------------0--------3-2----0--
   ----0---1---3------0---0-------0----X10
   --0---0---0----------0------0-------
   ------------------------------------
   ------------0-----------------------

   3'08
   --10/12--12-12~--10/12\9-  -------------0----10/12-12~--
   -------------------------  -----------------------------
   -------------------------  ---0---1---3-----------------X2
   -------------------------  -0---0---0-----0-------------
   -------------------------  -----------------------------
   -------------------------  -----------0-----------------






   				
   --------------0----10/12~--
   ---------------------------
   ----0---1---3--------------
   --0---0---0-----0----------
   ---------------------------
   ------------0--------------

   3'23
   --------------------------------------------------------
   -------------0------------------------0--------0-----0--
   --0---1---3----0---0--------------------0---0----0-----0X2
   0---0---0--------0---/7\5~--/5\3-0-0------0--------0----
   --------------------------------------------------------
   ----------0---------------------------------------------

   3'39
   --2/3-'2'-0-0--------------2/3-3-'2'-0-0----------------
   ---------------0---0--0-------------------0---0--0------
   ----------------0-0-0--0-------------------0-0-0--0-----X2
   -----------------0---0----------------------0---0-------
   --------------------------------------------------------
   ----0--------------------------0------------------------
 
   3'53
   -----------------------/3-----------
   ----------------0----------5-5~~----
   ----0---1---3-----0-----------------X3
   --0---0---0---------0---------------
   ------------------------------------
   ------------0-----------------------

   4'04
   -----------------0---0-------   -----0---0--------
   -------------------0---0---0-   -------0---0---0--
   ----0---1---3------------0---   -------------0----X10
   --0---0---0----0-------------   ---0--------------very
   -----------------------------   ------------------slighty
   ------------0----------------   -0----------------

   4'25
   -------------------0---------  
   ------------0--------0-------  
   ----------0---0--------0-----  
   ----------------0--------0---  
   ----------------------------- 
   --0-/1-1--------------------- 


   -----------------------0----------0---
   -----------------0-------0----------0-
   ----0---1---3--0---0-------0----0-----X2
   --0---0---0----------0-------0--------
   --------------------------------------
   ------------0-------------------------






   4'36
   -----0------/4\3p0----12--7---9~-
   --/3---/5~-----------------------
   ---------------------------------X3
   --------------------0-------0----
   ---------------------------------
   ---------------------------------


   -----0-----3-3-0----12--7---9----
   --/3---/5~-----------------------
   ---------------------------------
   ------------------0-------0------
   ---------------------------------
   ---------------------------------

   4'50
   --5-5/7-7~~----------------------
   ---------------------------------
   ---------------------------------X3
   ----0-----------0-/5~-/5\3p0--0^×-
   -------------/3------------------
   ---------------------------------
 

   --5-5/7-7~----------------------5\3p0---/3-------0-^×3/5-5-
   ------------------------------5------------5~~------------
   ------------------------/5-5~-----------------------------
   ----0-----------------------------------------------------
   ------------/3-0-/3~~-------------------------------------
   ----------------------------------------------------------


   -------5^×-5\3-0------0----0----0---------5---/12-12-------
   -----5--------------0----0-------/5-----5-----------------
   ---5---------------0----0--------------5------------------
   -5----------------0----0--------------5-------------------
   -----------------0----------------------------------------
   ----------------------------------------------------------


   ----------12^×-12\10----------------------/5~-4-0------0---
   --------12----------/12----------12------------------0----
   ------12----------------12~----12-------------------0-----
   ----12-----------------------12--------------------0------
   --12----------------------------------------------0-------
   ----------------------------------------------------------


   --0^×-3/4-4-0-------0------0-----------0-----00------------
   ------------------0-0-------/5-------0-----0--0-----------
   -----------------0---0--------------0-----0----0----------
   ----------------0-----0------------0-----0------0---------
   ----------------------------------0--------------0--------
   ----------------------------------------------------------



That's it! 
Any comments and corrections are welcome !
Mail me at : nicolasberry@yahoo.fr
     
Добавлено: 27.07.2013
Другие материалы по этой песне:
  • Аккорды и текст

Страница создана 27.07.2013
http://primanota.ru/ry-cooder/she-is-leaving-the-bank-chords.htm
Привет, Гость.
Предлагаем пройти революционный курс по гитаре.
Подарок от PrimaNota.Ru, забирай!