PrimaNota.ru - самый крупный в мире бесплатный архив песенных текстов, аккордов, табулатур и нот


Ry Cooder - Patricia - таба, видео

Регистрация Запомнить меня
Войти через:  Facebook Google Twitter Vk Yandex Mail.ru

Ry Cooder - Patricia - таба, видео

Печатать
Просмотров: 108
Artist - Ry Cooder
Song - Patricia

|-----------------|-----------------|-----------------|-----------------|
|---1-------------|---1---1---1---1-|---1-------------|-----------------|
|-2---------------|-2---2---2---2---|-3---------------|-----------------|
|-----3-------3---|-----3-------3---|-----2-------2---|-----2-------2---|
|---------3-------|-----------------|-3---------------|-3---------------|
|-1---------------|-1-------1-------|---------3-------|---------3-------|

|-----------------|---------3-0-----|-----------------|-----------------||
|---1-------------|---1---1-----1---|---1-------------|-----------------||
|-3---------------|-3---3---------3-|-2---------------|-----------------||
|-----2-------2---|-----2-------2---|-----3-------3---|-----3-------3---||
|-3---------------|-3---------------|---------3-------|---------3-------||
|---------3-------|---------3-------|-1---------------|-1---------------||

||-1--------------|---3-1-0-3-1-0---|-1---------------|-----------------|
||-1--------------|---1-----------3-|-----------------|-----------------|
||-2--------------|---2-------------|-0-----3---------|-----------------|
||-----3-------3--|-----3-------3---|-----2-------2---|-----2-------2---|
||---------0------|-----------------|-3---------------|-3---------------|
||-1--------------|-1-------1-------|---------3-------|---------3-------|

|-3---------------|---1-0-1-3-1-0---|-0---------------|-----------------||
|-1---------------|---------------3-|-----------------|-----------------||
|-0---------------|-----------------|-2-----2---------|-----------------||
|-----2-------2---|-----2-------2---|-----3-------3---|-----3-------3---||
|-3---------------|-3---------------|---------0-------|---------0-------||
|---------3-------|---------3-------|-1---------------|-1---------------||

||-1--------------|---3-1-0-3-1-0---|-1---------------|-----------------|
||-1--------------|---1-----------3-|-----------------|-----------------|
||-2--------------|---2-------------|-0-----3---------|-----------------|
||-----3-------3--|-----3-------3---|-----2-------2---|-----2-------2---|
||---------0------|-----------------|-3---------------|-3---------------|
||-1--------------|-1-------1-------|---------3-------|---------3-------|

|-3---------------|---1-0-1-3-1-0---|
|-1---------------|---------------3-|
|-0---------------|-----------------|
|-----2-------2---|-----2-------2---|
|-3---------------|-3---------------|
|---------3-------|---------3-------|

|-----------------|----------------||-----------------|-----------------|
|-2---------------|----------------||-8-8---6-8-------|---6-----8---6---|
|-2---------------|----------------||-7-7---7-7-------|---7---7---------|
|-----2-------2---|-----2-------2--||-----8-------8---|-----8-------8---|
|-0---------------|-0--------------||-----------------|-----------------|
|---------0-------|---------0------||-6-------6-------|-6-------6-------|

|-----------------|-5-------6-------|-5-------1-------|-3-------0-------|
|-1-1---------6---|-6-----------8---|-0-------0-------|-1-------1-------|
|-2-2---2---------|-5-----5---------|-0-------0-------|-0-------0-------|
|-----3-----------|-----7-------7---|-----0-------0---|-----2-------2---|
|-----------------|-8-------5-------|-----------------|-3---------------|
|-1-------1-------|-----------------|-3-------3-------|---------3-------|

|-1---------------|-----------------||
|-1---------------|---1---1-1---1---||
|-2---------------|-----------0-----||
|-----------------|-----------------||
|---3-3-3-3-3-3-3-|-3---3---3---3---||
|-1---------------|-----------------||
Добавлено: 26.02.2012
Другие материалы по этой песне:
  • Аккорды и текст

Страница создана 26.02.2012
http://primanota.ru/ry-cooder/patricia-chords.htm
Привет, Гость.
Предлагаем пройти революционный курс по гитаре.
Подарок от PrimaNota.Ru, забирай!