PrimaNota.ru - самый крупный в мире бесплатный архив песенных текстов, аккордов, табулатур и нот


Rx Bandits - Who Wouldve Thought - текст песни, таба, видео

Регистрация Запомнить меня
Войти через:  Facebook Google Twitter Vk Yandex Mail.ru

Rx Bandits - Who Wouldve Thought - текст песни, таба, видео

Печатать
Просмотров: 63
*********************************
* Song   : Who Would've Thought	*
* Artist : Rx Bandits           *
* Album  : Progress             *
* Year   : 2001                 *
*********************************
    Tabbed by: Bill Streckfus

Tempo = 200 bpm

Intro:
------------------------------------------------------------------------------

Guitar 1 (distorted):

   D                                     F#m                  D add b5
E|------------------|------------------|------------------|------------------|
B|------------------|------------------|------------------|------------------|
G|1111--11--111111--|--11--111111--11--|1111--11--111111--|--11--111111--11--|
D|------------------|------------------|------------------|------------------| x 3
A|-9-9---9---9-9-9--|---9---9-9-9---9--|-9-9---9---9-9-9--|---9---9-9-9---9--|
E|------------------|--10--101010--10--|------------------|--10--101010--10--|

Guitar 2 (distorted):

   D                                     F#m                  D add b5
E|------------------|------------------|------------------|------------------|
B|------------------|------------------|------------------|------------------|
G|------------------|------------------|1414--14--141414--|--14--141414--14--|
D|------------------|------------------|------------------|------------------|
A|------------------|------------------|1212--12--121212--|--11--111111--11--|
E|------------------|------------------|1414--14--141414--|--10--101010--10--|

   D                                     F#m                  D add b5
E|------------------|------------------|------------------|------------------|
B|------------------|------------------|------------------|------------------|
G|1111--11--111111--|--11--111111--11--|1414--14--141414--|--14--141414--14--|
D|------------------|------------------|------------------|------------------| x 2
A|-9-9---9---9-9-9--|---9---9-9-9---9--|1212--12--121212--|--11--111111--11--|
E|------------------|--10--101010--10--|1414--14--141414--|--10--101010--10--|

Verse:
------------------------------------------------------------------------------

Guitars 1 & 2:

   F#m     D          F#m     D          F#m     D          D         C#
E|-2---x-2-x-2-x-2--|-x-2-x-2-x-2-x-2--|-x-2-x-2-x-2-x-2--|-xxx-x-2-x-1-x-1--|
B|-2---x-2-x-3-x-3--|-x-2-x-2-x-3-x-3--|-x-2-x-2-x-3-x-3--|-xxx-x-3-x-2-x-2--|
G|-2---x-2-x-2-x-2--|-x-2-x-2-x-2-x-2--|-x-2-x-2-x-2-x-2--|-xxx-x-2-x-1-x-1--|
D|------------------|------------------|------------------|------------------|
A|------------------|------------------|------------------|------------------|
E|------------------|------------------|------------------|------------------|

   F#m     D          F#m     D          F#m     D          D         C#
E|-x-2-x-2-x-2-x-2--|-x-2-x-2-x-2-x-2--|-x-2-x-2-x-2-x-2--|-xxx-x-2-x-1-x-1--|
B|-x-2-x-2-x-3-x-3--|-x-2-x-2-x-3-x-3--|-x-2-x-2-x-3-x-3--|-xxx-x-3-x-2-x-2--|
G|-x-2-x-2-x-2-x-2--|-x-2-x-2-x-2-x-2--|-x-2-x-2-x-2-x-2--|-xxx-x-2-x-1-x-1--|
D|------------------|------------------|------------------|------------------| x 3
A|------------------|------------------|------------------|------------------|
E|------------------|------------------|------------------|------------------|

Pre-Chorus:
------------------------------------------------------------------------------

Guitars 1 & 2:

   F#m                D           A                         E  
E|-x---2---x---5-5--|-x---2---x---x-5--|---5---x-x---5----|-x---4---x---4----|
B|-x---2---x---7-7--|-x---3---x---x-5--|-----5-x-x---5----|-x---5---x---5----|
G|------------------|-------------x-6--|------------------|-x---4---x---4----|
D|------------------|------------------|------------------|------------------|
A|------------------|------------------|------------------|------------------|
E|------------------|------------------|------------------|------------------|

   F#m                D           A                         E  
E|-x---2---x---2----|-x-x-2-x-x-x-x-5--|---5---x-x-x-x-x--|-x-x-4---x-x-4-4--|
B|-x---2---x---2----|-x-x-3-x-x-x-x-5--|-----5-x-x-x-x-x--|-x-x-5---x-x-5-5--|
G|-x---2---x---2----|-x-x-2-x-x-x-x-6--|------------------|-x-x-4---x-x-4-4--|
D|------------------|------------------|------------------|------------------|
A|------------------|------------------|------------------|------------------|
E|------------------|------------------|------------------|------------------|

Guitar 1 (distorted):

   F#m
E|------------------|------------------|------------------|------------------|
B|------------------|------------------|------------------|------------------|
G|------------------|------------------|------------------|------------------|
D|-----4------------|-----4------------|-----4------------|-----4------------|
A|-------4-5-5-4----|-------4-5-5-4----|-------4-5-5-4----|-------4-5-5-4----|
E|-2-2-----------5--|-2-2-----------5--|-2-2-----------5--|-2-2-----------5--| 
  Start with palm mutes going into pinch harmonics

Guitars 1 & 2 (distorted):

   B5                 DM7/C#             D5                 E5
E|------------------|------------------|------------------|------------------|
B|------------------|------------------|------------------|------------------|
G|------------------|------------------|------------------|-9---9-9---9-9----|
D|-4---4---4---4-4--|-7---7---7---7-7--|-7---7---7---7-7--|-9---9-9---9-9----|
A|-2---2---2---2-2--|-4---4---4---4-4--|-5---5---5---5-5--|-7---7-7---7-7----|
E|------------------|------------------|------------------|------------------|

   E5
E|------------------|
B|------------------|
G|-9-9---9-9---9----|
D|-9-9---9-9---9----|
A|-7-7---7-7---7----|
E|------------------|

Chorus:
------------------------------------------------------------------------------

Guitars  1 & 2 (distorted):

   A5    E5      F#5        D5           A5    E5      F#5        D5
E|------------------|------------------|------------------|------------------|
B|------------------|------------------|------------------|------------------|
G|------------------|-------7---7-7-7--|------------------|-------7---7-7-7--|
D|-7-7-x-2---2-x-4--|---4-x-7---7-7-7--|-7-7-x-2---2-x-4--|---4-x-7---7-7-7--|
A|-7-7-x-2---2-x-4--|---4-x-5---5-5-5--|-7-7-x-2---2-x-4--|---4-x-5---5-5-5--|
E|-5-5-x-0---0-x-2--|---2-x------------|-5-5-x-0---0-x-2--|---2-x------------|

   A5    E5      F#5        D5           A5    E5      F#5   
E|------------------|------------------|------------------|------------------|
B|------------------|------------------|------------------|------------------|
G|------------------|-------7---7-7-7--|------------------|------------------|
D|-7-7-x-2---2-x-4--|---4-x-7---7-7-7--|-7-7-x-2---2-x-4--|------------------|
A|-7-7-x-2---2-x-4--|---4-x-5---5-5-5--|-7-7-x-2---2-x-4--|---4-4-4-4-4-4-4--|
E|-5-5-x-0---0-x-2--|---2-x------------|-5-5-x-0---0-x-2--|---2-2-2-2-2-2-2--|
                                                              p.m.p.m.p.m.p.m.

   AM7/G#             D5
E|------------------|------------------|------------------|
B|------------------|------------------|------------------|
G|------------------|------------------|-7-7-7-7-7-7-7-7--|
D|------------------|-7-7-7-7-7-7-7-7--|-7-7-7-7-7-7-7-7--|
A|-7-7-7-7-7-7-7-7--|-5-5-5-5-5-5-5-5--|-5-5-5-5-5-5-5-5--|
E|-4-4-4-4-4-4-4-4--|------------------|------------------|
   p.m.p.m.p.m.p.m.   p.m.p.m.p.m.p.m.  

Bridge
------------------------------------------------------------------------------

Guitars 1 & 2 (distorted):

   F#5
E|------------------|------------------|------------------|------------------|
B|------------------|------------------|------------------|------------------|
G|------------------|------------------|------------------|------------------|
D|------------------|------------------|------------------|------------------|
A|-4-4--------------|------------------|------------------|------------------|
E|-2-2--------------|------------------|------------------|------------------|

   F#5                                   D5                   DM7/C#  A5
E|------------------|------------------|------------------|------------------|
B|------------------|------------------|------------------|------------------|
G|------------------|------------------|------------------|------------------|
D|------------------|------------------|-7-7---7---7-7-7--|---7---7-7--------|
A|-4-4-----4-4------|-4-4-----4-4---x--|-5-5---5---5-5-5--|---4---4-4---x-x--|
E|-2-2---0-2-2---0--|-2-2---0-2-2---x--|------------------|-----------5-x-x--|

   F#5                                   D5                   DM7/C#  A5
E|------------------|------------------|------------------|------------------|
B|------------------|------------------|------------------|------------------|
G|------------------|------------------|------------------|------------------|
D|------------------|------------------|-7-7---7---7-7-7--|---7---7-7--------|
A|-4-4-----4-4------|-4-4-----4-4---x--|-5-5---5---5-5-5--|---4---4-4---x-x--|
E|-2-2---0-2-2---0--|-2-2---0-2-2---x--|------------------|-----------5-x-x--|

   F#5                                   D5                   DM7/C#  A5
E|------------------|------------------|------------------|------------------|
B|------------------|------------------|------------------|------------------|
G|------------------|------------------|------------------|------------------|
D|------------------|------------------|-7-7---7---7-7-7--|---7---7-7--------|
A|-4-4-----4--------|-4-4-----4--------|-5-5---5---5-5-5--|---4---4-4---x-x--|
E|-2-2---0-2--0--0--|-2-2---0-2--0--0--|------------------|-----------5-x-x--|
           triplet            triplet

   F#5                                   D5                   DM7/C#  A5
E|------------------|------------------|------------------|------------------|
B|------------------|------------------|------------------|------------------|
G|------------------|------------------|------------------|------------------|
D|------------------|------------------|-7-7---7---7-7-7--|---7---7-7--------|
A|-4-4-----4-4------|-4-4-----4-4---x--|-5-5---5---5-5-5--|---4---4-4---x-x--|
E|-2-2---0-2-2---0--|-2-2---0-2-2---x--|------------------|-----------5-x-x--|

Guitar 1 (distorted):

   F#m                A                  C# sus4               F#m         
E|------------------|------------------|---------------------|---------------------|
B|------------------|------------------|---------------------|---------------------|
G|-2p1-2p1-2p1-2p1/-|-6p5-6p5-6p5-6p5/-|11p1011p1011p1011p10/|14p1314p1314---------|
D|------------------|------------------|---------------------|---------------------|
A|------------------|------------------|---------------------|---------------------|
E|------------------|------------------|---------------------|---------------------|

Guitar 2 (distorted):

   F#m                A                  C# sus4               F#m     
E|------------------|------------------|---------------------|---------------------|
B|------------------|------------------|---------------------|---------------------|
G|------------------|------------------|11p1011p1011p1011p10/|---------------------|
D|-4p3-4p3-4p3-4p3/-|-7p6-7p6-7p6-7p6/-|11p1011p1011p1011p10/|16p1516p1516---------|
A|------------------|------------------|---------------------|---------------------|
E|------------------|------------------|---------------------|---------------------|

Guitars 1 & 2:

   B5                 C#5                D5                 E5
E|------------------|------------------|------------------|------------------|
B|------------------|------------------|------------------|------------------|
G|-4-4-4-4-4-4-4-4--|-6-6-6-6-6-6-6-6--|-7-7-7-7-7-7-7-7--|-9-9-9-9-9-9-9-9--|
D|-4-4-4-4-4-4-4-4--|-6-6-6-6-6-6-6-6--|-7-7-7-7-7-7-7-7--|-9-9-9-9-9-9-9-9--|
A|-2-2-2-2-2-2-2-2--|-4-4-4-4-4-4-4-4--|-5-5-5-5-5-5-5-5--|-7-7-7-7-7-7-7-7--|
E|------------------|------------------|------------------|------------------|

   E5
E|------------------|------------------|------------------|
B|------------------|------------------|------------------|
G|-9-9-9-9-9-9-9-9--|-9-9-9-9-9-9-9-9--|-9-9-9-9-9-9-9-9--|
D|-9-9-9-9-9-9-9-9--|-9-9-9-9-9-9-9-9--|-9-9-9-9-9-9-9-9--|
A|-7-7-7-7-7-7-7-7--|-7-7-7-7-7-7-7-7--|-7-7-7-7-7-7-7-7--|
E|------------------|------------------|------------------|

Final Chorus:
------------------------------------------------------------------------------

Guitars 1 & 2 (distorted):

   A5    E5      F#5        D5           A5    E5      F#5        D5
E|------------------|------------------|------------------|------------------|
B|------------------|------------------|------------------|------------------|
G|------------------|-------7---7-7-7--|------------------|-------7---7-7-7--|
D|-7-7-x-2---2-x-4--|---4-x-7---7-7-7--|-7-7-x-2---2-x-4--|---4-x-7---7-7-7--|
A|-7-7-x-2---2-x-4--|---4-x-5---5-5-5--|-7-7-x-2---2-x-4--|---4-x-5---5-5-5--|
E|-5-5-x-0---0-x-2--|---2-x------------|-5-5-x-0---0-x-2--|---2-x------------|

   A5    E5      F#5        D5           A5    E5      F#5        
E|------------------|------------------|------------------|------------------|
B|------------------|------------------|------------------|------------------|
G|------------------|-------7---7-7-7--|------------------|------------------|
D|-7-7-x-2---2-x-4--|---4-x-7---7-7-7--|-7-7-x-2---2-x-4--|---4-4-4-4-4-4-4--|
A|-7-7-x-2---2-x-4--|---4-x-5---5-5-5--|-7-7-x-2---2-x-4--|---4-4-4-4-4-4-4--|
E|-5-5-x-0---0-x-2--|---2-x------------|-5-5-x-0---0-x-2--|---2-2-2-2-2-2-2--|
                     
   AM7/G#                                         
E|------------------|
B|------------------|
G|------------------|
D|------------------|
A|-7-7-7-7-7-7-7-7--|
E|-4-4-4-4-4-4-4-4--|
   
   A5    E5      F#5        D5           A5    E5      F#5        D5
E|------------------|------------------|------------------|------------------|
B|------------------|------------------|------------------|------------------|
G|------------------|-------7---7-7-7--|------------------|-------7---7-7-7--|
D|-7-7-x-2---2-x-4--|---4-x-7---7-7-7--|-7-7-x-2---2-x-4--|---4-x-7---7-7-7--|
A|-7-7-x-2---2-x-4--|---4-x-5---5-5-5--|-7-7-x-2---2-x-4--|---4-x-5---5-5-5--|
E|-5-5-x-0---0-x-2--|---2-x------------|-5-5-x-0---0-x-2--|---2-x------------|

   A5    E5      F#5        D5           A5    E5      F#5        
E|------------------|------------------|------------------|------------------|
B|------------------|------------------|------------------|------------------|
G|------------------|-------7---7-7-7--|------------------|------------------|
D|-7-7-x-2---2-x-4--|---4-x-7---7-7-7--|-7-7-x-2---2-x-4--|------------------|
A|-7-7-x-2---2-x-4--|---4-x-5---5-5-5--|-7-7-x-2---2-x-4--|---4-4-4-4-4-4-4--|
E|-5-5-x-0---0-x-2--|---2-x------------|-5-5-x-0---0-x-2--|---2-2-2-2-2-2-2--|
                                                              p.m.p.m.p.m.p.m.

   AM7/G#             D5
E|------------------|------------------|------------------|
B|------------------|------------------|------------------|
G|------------------|------------------|-7-7-7-7-7-7-7-7--|
D|------------------|-7-7-7-7-7-7-7-7--|-7-7-7-7-7-7-7-7--|
A|-7-7-7-7-7-7-7-7--|-5-5-5-5-5-5-5-5--|-5-5-5-5-5-5-5-5--|
E|-4-4-4-4-4-4-4-4--|------------------|------------------|
   p.m.p.m.p.m.p.m.   p.m.p.m.p.m.p.m.  


Outro:
------------------------------------------------------------------------------

Guitars 1 & 2 (tremelo)

   F#m     E              D          A           F#m
E|----------------------|---------10---9-------|-2--------------------|
B|10----10-9p10h9-----9-|-7--------------10----|-2--------------------|
G|--11------------9-----|-7------7---7---------|-2--------------------|
D|----11------------9---|-7--------------------|-4--------------------|
A|----------------------|----------------------|----------------------|
E|----------------------|----------------------|----------------------|
                                                 Arpeggiate
Добавлено: 25.08.2013
Другие материалы по этой песне:
  • Аккорды и текст

Страница создана 25.08.2013
http://primanota.ru/rx-bandits/who-wouldve-thought-chords.htm
Привет, Гость.
Предлагаем пройти революционный курс по гитаре.
Подарок от PrimaNota.Ru, забирай!