PrimaNota.ru - самый крупный в мире бесплатный архив песенных текстов, аккордов, табулатур и нот


Rx Bandits - Vcg Iii - таба, видео

Регистрация Запомнить меня
Войти через:  Facebook Google Twitter Vk Yandex Mail.ru

Rx Bandits - Vcg Iii - таба, видео

Печатать
Просмотров: 69
*********************************
* Song   : VCG III		*
* Artist : Rx Bandits		*
* Album  : Progress		*
* Year   : 2001			*
*********************************
    Tabbed by: Bill Streckfus

Tempo = 210 bpm

Intro:
------------------------------------------------------------------------------

Guitar 1 (distorted):

   Em                   D
E|------------------|------------------|
B|------------------|------------------|
G|------------------|------------------|
D|-------9-9-9------|---7-7-7----------| x 4
A|-7-7-7-------10-10|10-------9-9-9-9--|
E|------------------|------------------|
   p.m.p.m.p.m.p.m.p.m.p.m.p.m.p.m.p.m

  Crescendo and gradually release palm mute.

Guitar 1 & 2 (distorted):

   E5
E|------------------|------------------|------------------|------------------|
B|------------------|------------------|------------------|------------------|
G|-9-9---9---x-9-9--|-9---x-9-9--------|-9-9---9---x-9-9--|-9---x-9-9/-------|
D|------------------|------------------|------------------|------------------|
A|-7-7---7---x-7-7--|-7---x-7-7--------|-7-7---7---x-7-7--|-7---x-7-7/-------|
E|------------------|------------------|------------------|------------------|

Verse:
------------------------------------------------------------------------------

Guitar 1 (distorted):

   Em
E|------------------|------------------|------------------|------------------|
B|------------------|------------------|------------------|------------------|
G|------------------|------------------|------------------|------------------|
D|------------------|------------------|------------------|------------------|
A|-7-7-7------------|------------------|-7-7-7------------|------------------|
E|-------8-8-8-7-7--|-7-3-3-3-0-0-0-0--|-------8-8-8-7-7--|-7-3-3-3-0-0-0-0--|
   p.m.p.m.p.m.p.m.p.m.p.m.p.m.p.m.p.m   p.m.p.m.p.m.p.m.p.m.p.m.p.m.p.m.p.m

   Am                    D     B
E|------------------|------------------|------------------|------------------|
B|------------------|------------------|------------------|------------------|
G|------------------|------------------|------------------|------------------|
D|------------------|------------------|------------------|------------------| x 3
A|-------7-7-7------|------------------|------------------|------------------|
E|-5-5-5-------8-8--|-8-101010-7-7-7-7-|-7-7-7-7-7-7-7-7--|-7-3-3-3-2-2-2-2--|
   p.m.p.m.p.m.p.m.p.m.p.m.p.m.p.m.p.m   p.m.p.m.p.m.p.m.p.m.p.m.p.m.p.m.p.m

   Em
E|------------------|------------------|
B|------------------|------------------|
G|------------------|------------------|
D|-9-9-9------------|------------------|
A|-7-7-7-1010109-9--|-9-5-5-5-2-2-2-2--|
E|-------8-8-8-7-7--|-7-3-3-3-0-0-0-0--|
   p.m.p.m.p.m.p.m.p.m.p.m.p.m.p.m.p.m

Guitar 1 & 2 (distorted):

   Em    F#m    G        A      B
E|------------------|------------------|
B|------------------|------------------|
G|-9-9-9111111-12-12|12-141414-16---16-|
D|------------------|------------------|
A|-7-7-7-9-9-9-10-10|10-121212-14---14-|
E|------------------|------------------|

Chorus:
------------------------------------------------------------------------------

Guitar 1 (distorted):

   C5                                    A5
E|------------------|------------------|------------------|------------------|
B|------------------|------------------|------------------|------------------|
G|-5-5-5-5-5-5-5-5--|-5-5-5---5-5-5-5--|------------------|------------------|
D|-5-5-5-5-5-5-5-5--|-5-5-5---5-5-5-5--|-7-7-7-7-7-7-7-7--|-7-7-7---7-7-7-7--|
A|-3-3-3-3-3-3-3-3--|-3-3-3---3-3-3-3--|-7-7-7-7-7-7-7-7--|-7-7-7---7-7-7-7--|
E|------------------|------------------|-5-5-5-5-5-5-5-5--|-5-5-5---5-5-5-5--|

   E5
E|------------------|------------------|------------------|------------------|
B|------------------|------------------|------------------|------------------|
G|------------------|------------------|------------------|------------------|
D|-2-2---2---x-2-2--|-2---x-2-2--------|-2-2---2---x-2-2--|-2---x-2-2--------| x 2
A|-2-2---2---x-2-2--|-2---x-2-2--------|-2-2---2---x-2-2--|-2---x-2-2--------|
E|-0-0---0---x-0-0--|-0---x-0-0--------|-0-0---0---x-0-0--|-0---x-0-0--------|

Guitar 2 (light):

   C5                                    A5
E|------------------|------------------|------------------|------------------|
B|------------------|------------------|------------------|------------------|
G|------------------|------------------|------------------|------------------|
D|------------------|------------------|------------------|------------------|
A|------------------|------------------|------------------|------------------|
E|------------------|------------------|------------------|------------------|

   E5
E|------------------|------------------|------------------|------------------|
B|------------------|------------------|------------------|------------------|
G|-9-9---9---x-9-9--|-9---x-9-9--------|-9-9---9---x-9-9--|-9---x-9-9--------|
D|------------------|------------------|------------------|------------------| x 2
A|-7-7---7---x-7-7--|-7---x-7-7--------|-7-7---7---x-7-7--|-7---x-7-7--------|
E|------------------|------------------|------------------|------------------|

Guitar 1 (distorted):

   C add9                                Asus2
E|------------------|------------------|------------------|------------------|
B|------------------|------------------|------------------|------------------|
G|-5-5-5-5-5-5-5-5--|-5-5-5-5-5-5-5-5--|------------------|------------------|
D|-5-5-5-5-5-5-5-5--|-5-5-5-5-5-5-5-5--|-7-7-7-7-7-7-7-7--|-7-7-7-7-7-7-7-7--|
A|-3-3-3-3-3-3-3-3--|-3-3-3-3-3-3-3-3--|-7-7-7-7-7-7-7-7--|-7-7-7-7-7-7-7-7--|
E|------------------|------------------|-5-5-5-5-5-5-5-5--|-5-5-5-5-5-5-5-5--|

   Em add9                               Dsus2                                    
E|------------------|------------------|------------------|------------------|
B|------------------|------------------|------------------|------------------|
G|------------------|------------------|-7-7-7-7-7-7-7-7--|-7-7-7-7-7-7-7-7--|
D|-2-2-2-2-2-2-2-2--|-2-2-2-2-2-2-2-2--|-7-7-7-7-7-7-7-7--|-7-7-7-7-7-7-7-7--|
A|-2-2-2-2-2-2-2-2--|-2-2-2-2-2-2-2-2--|-5-5-5-5-5-5-5-5--|-5-5-5-5-5-5-5-5--|
E|-0-0-0-0-0-0-0-0--|-0-0-0-0-0-0-0-0--|------------------|------------------|

   C add9                                Asus2
E|------------------|------------------|------------------|------------------|
B|------------------|------------------|------------------|------------------|
G|-5-5-5-5-5-5-5-5--|-5-5-5-5-5-5-5-5--|------------------|------------------|
D|-5-5-5-5-5-5-5-5--|-5-5-5-5-5-5-5-5--|-7-7-7-7-7-7-7-7--|-7-7-7-7-7-7-7-7--|
A|-3-3-3-3-3-3-3-3--|-3-3-3-3-3-3-3-3--|-7-7-7-7-7-7-7-7--|-7-7-7-7-7-7-7-7--|
E|------------------|------------------|-5-5-5-5-5-5-5-5--|-5-5-5-5-5-5-5-5--|

   E5                                    Em
E|------------------|------------------|------------------|------------------|
B|------------------|------------------|------------------|------------------|
G|------------------|------------------|------------------|------------------|
D|-2-2---2---x-2-2--|-2---x-2-2--------|-2-2---2---x-2-2--|-2---x-2-2--------|
A|-2-2---2---x-2-2--|-2---x-2-2--------|-2-2---2---x-2-2--|-2---x-2-2--------|
E|-0-0---0---x-0-0--|-0---x-0-0--------|-0-0---0---x-0-0--|-0---x-0-0--------|

Guitar 2 (distorted):

   C add9                                Asus2
E|------------------|------------------|------------------|------------------|
B|------------------|------------------|------------------|------------------|
G|---------7-7------|---------7-7------|---------4-4------|---------4-4------|
D|-----5-5-----5-5--|-----5-5-----5-5--|-----2-2-----2-2--|-----2-2-----2-2--|
A|-7-7--------------|-7-7--------------|-0-0--------------|-0-0--------------|
E|------------------|------------------|------------------|------------------|
   p.m.p.m.    p.m.   p.m.p.m.    p.m.   p.m.p.m.    p.m.   p.m.p.m.    p.m.

   Em add9                               Dsus2    
E|------------------|------------------|------------------|------------------|
B|------------------|------------------|------------------|------------------|
G|---------1111212--|---------12--11---|---------9-9------|---------9---7----|
D|-----9-9----------|-----9-9---9---9--|-----7-7-----7-7--|-----7-7---7---7--|
A|-7-7--------------|-7-7--------------|-5-5--------------|-5-5--------------|
E|------------------|------------------|------------------|------------------|
   p.m.p.m.           p.m.p.m.           p.m.p.m.           p.m.p.m.

   C add9                                Asus2
E|------------------|------------------|------------------|------------------|
B|------------------|------------------|------------------|------------------|
G|---------7-7------|---------7-7------|---------4-4------|---------4-4-4b6b4|
D|-----5-5-----5-5--|-----5-5-----5-5--|-----2-2-----2-2--|-----2-2----------|
A|-7-7--------------|-7-7--------------|-0-0--------------|-0-0--------------|
E|------------------|------------------|------------------|------------------|
   p.m.p.m.    p.m.   p.m.p.m.    p.m.   p.m.p.m.    p.m.   p.m.p.m.    p.m.

   E5                                    Em
E|------------------|------------------|------------------|------------------|
B|------------------|------------------|------------------|------------------|
G|-9-9---9---x-9-9--|-9---x-9-9--------|-9-9---9---x1111--|11---x1212--------|
D|------------------|------------------|------------------|------------------|
A|-7-7---7---x-7-7--|-7---x-7-7--------|-7-7---7---x-9-9--|-9---x1010--------|
E|------------------|------------------|------------------|------------------|


Verse 2:
------------------------------------------------------------------------------

Guitar 1: 

   Em
E|-----20--19-------|-19--18------18---|-----18--17-------|-17--15------14---|
B|-17----------17---|---------17-------|-17----------17---|---------17-------|
G|------------------|------------------|------------------|------------------|
D|------------------|------------------|------------------|------------------| x 2
A|------------------|------------------|------------------|------------------|
E|------------------|------------------|------------------|------------------|

   Em
E|-----20//19-------|-----14//15-------|-17//15------15//-|-14------14//15---|
B|-17----------17---|-17----------17---|---------17-------|-----17-----------|
G|------------------|------------------|------------------|------------------|
D|------------------|------------------|------------------|------------------|
A|------------------|------------------|------------------|------------------|
E|------------------|------------------|------------------|------------------|

   Am                    D      B
E|-----20//19-------|-----14//15-------|-17//15------15//-|-14---------------|
B|-17----------17---|-17----------17---|---------17-------|-----17--16-------|
G|------------------|------------------|------------------|------------------|
D|------------------|------------------|------------------|------------------| x 2
A|------------------|------------------|------------------|------------------|
E|------------------|------------------|------------------|------------------|


Bridge:
------------------------------------------------------------------------------

Guitar 1 (distorted):

   Em9
E|------------------|------------------|
B|------------------|------------------|
G|-9-9-12-9-11-9---9|-9-12-9-9-11-9---9|
D|---------------12-|---------------12-| x 7
A|------------------|------------------|
E|------------------|------------------|
   p.m.p.m.p.m.p.m.p.m.p.m.p.m.p.m.p.m

  Crescendo and gradually release palm mute.

Guitar 2 (distorted):

   Em9
E|-12---------------|---------15-------|-14---------------|---------14-------|
B|-------------12---|------------------|-------------15---|------------------|
G|------------------|------------------|------------------|------------------|
D|------------------|------------------|------------------|------------------|
A|------------------|------------------|------------------|------------------|
E|------------------|------------------|------------------|------------------|

   Em9
E|-12---------------|---------15-------|-14---------------|---------14-------|
B|-------------12---|------------------|-------------15---|------------------|
G|------------------|------------------|------------------|------------------|
D|------------------|------------------|------------------|------------------|
A|------------------|------------------|------------------|------------------|
E|------------------|------------------|------------------|------------------|
  softer...

   Em9
E|-12---------------|---------15-------|-12---------------|------------------|
B|-------------12---|------------------|-16b17------------|------------------|
G|------------------|------------------|------------------|------------------|
D|------------------|------------------|------------------|------------------|
A|------------------|------------------|------------------|------------------|
E|------------------|------------------|------------------|------------------|
   					 Hold bend until part below.

Guitar 1 (distorted):

   E b5
E|------------------|------------------|
B|------------------|------------------|
G|-9-9---9---x-9-9--|-9---x-x----------|
D|------------------|------------------|
A|-7-7---7---x-7-7--|-7---x-x----------|
E|------------------|------------------|

Guitar 2 (distorted):

E|------------------|------------------|
B|------------------|------------------|
G|------------------|------------------|
D|-8-8---8---x-8-8--|-8---x-x----------|
A|------------------|------------------|
E|-6-6---6---x-6-6--|-6---x-x----------|


Chorus/Outro
------------------------------------------------------------------------------

Guitar 1 (distorted):

   C5                                    A5                 
E|------------------|------------------|------------------|------------------|
B|------------------|------------------|------------------|------------------|
G|-5-5-5-5-5-5-5-5--|-5-5-5-5-5-5-5-5--|------------------|------------------|
D|-5-5-5-5-5-5-5-5--|-5-5-5-5-5-5-5-5--|-7-7-7-7-7-7-7-7--|-7-7-7-7-7-7-7-7--|
A|-3-3-3-3-3-3-3-3--|-3-3-3-3-3-3-3-3--|-7-7-7-7-7-7-7-7--|-7-7-7-7-7-7-7-7--|
E|------------------|------------------|-5-5-5-5-5-5-5-5--|-5-5-5-5-5-5-5-5--|

   E5                                    D5
E|------------------|------------------|------------------|------------------|
B|------------------|------------------|------------------|------------------|
G|------------------|------------------|-7-7-7-7-7-7-7-7--|-7-7-7-7-7-7-7-7--|
D|-2-2-2-2-2-2-2-2--|-2-2-2-2-2-2-2-2--|-7-7-7-7-7-7-7-7--|-7-7-7-7-7-7-7-7--|
A|-2-2-2-2-2-2-2-2--|-2-2-2-2-2-2-2-2--|-5-5-5-5-5-5-5-5--|-5-5-5-5-5-5-5-5--|
E|-0-0-0-0-0-0-0-0--|-0-0-0-0-0-0-0-0--|------------------|------------------|

   C5                                    A5
E|------------------|------------------|------------------|------------------|
B|------------------|------------------|------------------|------------------|
G|-5-5-5-5-5-5-5-5--|-5-5-5-5-5-5-5-5--|------------------|------------------|
D|-5-5-5-5-5-5-5-5--|-5-5-5-5-5-5-5-5--|-7-7-7-7-7-7-7-7--|-7-7-7-7-7-7-7-7--|
A|-3-3-3-3-3-3-3-3--|-3-3-3-3-3-3-3-3--|-7-7-7-7-7-7-7-7--|-7-7-7-7-7-7-7-7--|
E|------------------|------------------|-5-5-5-5-5-5-5-5--|-5-5-5-5-5-5-5-5--|

Guitar 2 (distorted):

   E5                                    D5
E|------------------|------------------|------------------|------------------|
B|------------------|------------------|------------------|------------------|
G|------------------|------------------|------------------|------------------|
D|------------------|------------------|------------------|------------------|
A|------------------|------------------|------------------|------------------|
E|------------------|------------------|------------------|------------------|

   C5                                    A5
E|------------------|------------------|------------------|------------------|
B|------------------|------------------|------------------|------------------|
G|1212121212121212--|121212121111-9-9--|------------------|------------------|
D|------------------|------------------|------------------|------------------|
A|1010101010101010--|10101010-9-9-7-7--|------------------|------------------|
E|------------------|------------------|------------------|------------------|
                      Decrescendo

Guitar 1 (distorted):

   Em                                    D
E|------------------|------------------|------------------|------------------|
B|------------------|------------------|------------------|------------------|
G|-9-9---9---x-9-9--|-9---x-9-9------x-|-7-7---7---x-7-7--|-7---x-7-7------x-|
D|------------------|------------------|------------------|------------------|
A|-7-7---7---x-7-7--|-7---x-7-7------x-|-5-5---5---x-5-5--|-5---x-5-5------x-|
E|------------------|------------------|------------------|------------------|

   Em                                    C                  B
E|------------------|------------------|------------------|------------------|
B|------------------|------------------|------------------|------------------|
G|-9-9---9---x-9-9--|-9---x-9-9------x-|-5-5---5---x-5-5--|-4---x-4-4--x-4-4-|
D|------------------|------------------|------------------|------------------| x 2
A|-7-7---7---x-7-7--|-7---x-7-7------x-|-3-3---3---x-3-3--|-2---x-2-2--x-2-2-|
E|------------------|------------------|------------------|------------------|

   Em
E|------------------|------------------|
B|------------------|------------------|
G|-9-9---9---x-9-9--|-9---x-9-9/-----x-|
D|------------------|------------------|
A|-7-7---7---x-7-7--|-7---x-7-7/-----x-|
E|------------------|------------------|

Guitar 2 (distorted):

   Em                                    D
E|------------------|------------------|------------------|------------------|
B|------------------|------------------|------------------|------------------|
G|1212--12---x1212--|12---x1212------x-|1111--11---x1111--|11---x1111------x-|
D|------------------|------------------|------------------|------------------|
A|1010--10---x1010--|10---x1010------x-|-9-9---9---x-9-9--|-9---x-9-9------x-|
E|------------------|------------------|------------------|------------------|

   Em                                    C                  B
E|------------------|------------------|------------------|------------------|
B|------------------|------------------|------------------|------------------|
G|1212--12---x1212--|12---x1212------x-|1414--14---x1414--|11---x1111--x1111-|
D|------------------|------------------|------------------|------------------| x 2
A|1010--10---x1010--|10---x1010------x-|1212--12---x1212--|-9---x-9-9--x-9-9-|
E|------------------|------------------|------------------|------------------|

   Em
E|------------------|------------------|
B|------------------|------------------|
G|1212--12---x1212--|12---x1212/-------|
D|------------------|------------------|
A|1010--10---x1010--|10---x1010/-------|
E|------------------|------------------|

Guitar 3: (after one time around)

   Em                                    D
E|12----------------|---------15-------|14----------------|---------14-------|
B|------------12----|------------------|------------15----|------------------|
G|------------------|------------------|------------------|------------------|
D|------------------|------------------|------------------|------------------|
A|------------------|------------------|------------------|------------------|
E|------------------|------------------|------------------|------------------|

   Em                                    C                  B
E|12----------------|---------15-------|14----------------|---------14-------|
B|------------12----|------------------|------------15----|------------------|
G|------------------|------------------|------------------|------------------|
D|------------------|------------------|------------------|------------------|
A|------------------|------------------|------------------|------------------|
E|------------------|------------------|------------------|------------------|
  softer...

   Em
E|12----------------|------------------|------------------|------------------|
B|------------------|------------------|------------------|------------------|
G|------------------|------------------|------------------|------------------|
D|------------------|------------------|------------------|------------------|
A|------------------|------------------|------------------|------------------|
E|------------------|------------------|------------------|------------------|


-----------------------------------------------------------------------------
If this tab was helpful and you're as big of a bandits fan as I am, be on the
lookout for more Rx Bandits tabs by yours truly.
Добавлено: 06.10.2013
Вам также может быть интересно:
Другие материалы по этой песне:
  • Аккорды и текст

Страница создана 06.10.2013
http://primanota.ru/rx-bandits/vcg-iii-chords.htm
Привет, Гость.
Предлагаем пройти революционный курс по гитаре.
Подарок от PrimaNota.Ru, забирай!