PrimaNota.ru - самый крупный в мире бесплатный архив песенных текстов, аккордов, табулатур и нот


Rx Bandits - To Our Unborn Daughters - текст песни, таба, видео

Регистрация Запомнить меня
Войти через:  Facebook Google Twitter Vk Yandex Mail.ru

Rx Bandits - To Our Unborn Daughters - текст песни, таба, видео

Печатать
Просмотров: 79
Rx Bandits
...And the Battle Begun
"To Our Unborn Daughters"

Tabbed by: Alex Z.

Intro
G-----------------|
D-------------7-9-|
A-------9-10------|
E-3/7~------------| (x a bajillion)

Verse intro:
G-----------------------------------------------------------|
D-----------------------------------------------------------|
A-9-9---------------------7---9-9---------------------------|
E-------7-7---5-5---7-7-9-----------7-7----5-5----777777777-| (x1)


Verse 1:
G--------------------------------------|
D--------------------------------------|
A-99999999--------------7-----------77-|
E----------77777777-5555-555-7777-99---| (x2)

Chorus:
G----------------------------------------------------------|
D----------------------------------------------------------|
A----------------------------------------------------5~-4~-|
E-22202----22022-55505----55055-22202----22022-7~-0~-------| (x2)

Post Chorus:
G--------------------------------------|
D--------------------------------------|
A-22222222-44444444-55555555-7777-8888-|
E--------------------------------------| (x1)

Verse 2 intro:
G--------------------------|
D--------------------------|
A-9-99-------------------7-|
E-------7-77--5-55--7-77---|(x1)

Verse 2:
G---------------------------------------|
D---11-9-7--------9---------------------|
A-9-------------9---------7-----------7-|
E-----------7-7------5-55---5---7-7-9---| (x4)

Pre Chorus:
G--------------------|
D--------------------|
A-77777777-88888888--|
E--------------------|

play chorus twice


Bridge
G-------------------------|
D-------------7---9-------|
A-----4---7-4---7---7-9---|
E-2-0---5---------------9-| (x4)

Avante Grind part:
G--------------------------------------------------------------|
D----------------777-999-----777-999-----777-999-----777-999---|
A------------------------9>>>--------9>>>--------9>>>--------9-|
E-2>>>>>>>>-rest-----------------------------------------------|

rest for drums
bang out an F# after 2 measures of drums then rest again

G---------------------------------|
D-------------------9>>-11>>-12---|>
A-9>>>>-11>>>>-12>>---------------|
E---------------------------------|

End:
G-------------------------|
D-----------2-7-----------|
A-----2-3-4-----7-9-------|
E-2-5---------------9-8-7-| (x2) end on F#
Добавлено: 07.09.2013
Другие материалы по этой песне:
  • Аккорды и текст

Страница создана 22.05.2012
http://primanota.ru/rx-bandits/to-our-unborn-daughters-chords.htm
Привет, Гость.
Предлагаем пройти революционный курс по гитаре.
Подарок от PrimaNota.Ru, забирай!