PrimaNota.ru - самый крупный в мире бесплатный архив песенных текстов, аккордов, табулатур и нот


Rx Bandits - Progress - текст песни, таба, видео

Регистрация Запомнить меня
Войти через:  Facebook Google Twitter Vk Yandex Mail.ru

Rx Bandits - Progress - текст песни, таба, видео

Печатать
Просмотров: 73
*****************************************
* Song   : VCG III			*
* Artist : Rx Bandits			*
* Album  : Progress			*
* Year   : 2001				*
*****************************************
    Tabbed by: Bill Streckfus

Tempo = 210 bpm

Intro:
------------------------------------------------------------------------------

Guitar 1:

E|------------------|------------------|
B|------------------|------------------|
G|------------------|------------------|
D|-------9-9-9------|---7-7-7----------| x 4
A|-7-7-7-------10-10|10-------9-9-9-9--|
E|------------------|------------------|
   p.m.p.m.p.m.p.m.p.m.p.m.p.m.p.m.p.m

  Crescendo and gradually release palm mute.

Guitar 1 & 2:

E|------------------|------------------|------------------|------------------|
B|------------------|------------------|------------------|------------------|
G|-9-9---9---x-9-9--|-9---x-9-9--------|-9-9---9---x-9-9--|-9---x-9-9/-------|
D|------------------|------------------|------------------|------------------|
A|-7-7---7---x-7-7--|-7---x-7-7--------|-7-7---7---x-7-7--|-7---x-7-7/-------|
E|------------------|------------------|------------------|------------------|

Verse:
------------------------------------------------------------------------------

Guitar 1:

E|------------------|------------------|------------------|------------------|
B|------------------|------------------|------------------|------------------|
G|------------------|------------------|------------------|------------------|
D|------------------|------------------|------------------|------------------|
A|-7-7-7------------|------------------|-7-7-7------------|------------------|
E|-------8-8-8-7-7--|-7-3-3-3-0-0-0-0--|-------8-8-8-7-7--|-7-3-3-3-0-0-0-0--|
   p.m.p.m.p.m.p.m.p.m.p.m.p.m.p.m.p.m   p.m.p.m.p.m.p.m.p.m.p.m.p.m.p.m.p.m

E|------------------|------------------|------------------|------------------|
B|------------------|------------------|------------------|------------------|
G|------------------|------------------|------------------|------------------|
D|------------------|------------------|------------------|------------------| x 3
A|-------7-7-7------|------------------|------------------|------------------|
E|-5-5-5-------8-8--|-8-101010-7-7-7-7-|-7-7-7-7-7-7-7-7--|-7-3-3-3-2-2-2-2--|
   p.m.p.m.p.m.p.m.p.m.p.m.p.m.p.m.p.m   p.m.p.m.p.m.p.m.p.m.p.m.p.m.p.m.p.m

E|------------------|------------------|
B|------------------|------------------|
G|------------------|------------------|
D|-9-9-9------------|------------------|
A|-7-7-7-1010109-9--|-9-5-5-5-2-2-2-2--|
E|-------8-8-8-7-7--|-7-3-3-3-0-0-0-0--|
   p.m.p.m.p.m.p.m.p.m.p.m.p.m.p.m.p.m

Guitar 1 & 2:

E|------------------|------------------|
B|------------------|------------------|
G|-9-9-9111111-12-12|12-141414-16---16-|
D|------------------|------------------|
A|-7-7-7-9-9-9-10-10|10-121212-14---14-|
E|------------------|------------------|

Chorus:
------------------------------------------------------------------------------

Guitar 1:

E|------------------|------------------|------------------|------------------|
B|------------------|------------------|------------------|------------------|
G|-5-5-5-5-5-5-5-5--|-5-5-5---5-5-5-5--|------------------|------------------|
D|-5-5-5-5-5-5-5-5--|-5-5-5---5-5-5-5--|-7-7-7-7-7-7-7-7--|-7-7-7---7-7-7-7--|
A|-3-3-3-3-3-3-3-3--|-3-3-3---3-3-3-3--|-7-7-7-7-7-7-7-7--|-7-7-7---7-7-7-7--|
E|------------------|------------------|-5-5-5-5-5-5-5-5--|-5-5-5---5-5-5-5--|

E|------------------|------------------|------------------|------------------|
B|------------------|------------------|------------------|------------------|
G|------------------|------------------|------------------|------------------|
D|-2-2---2---x-2-2--|-2---x-2-2--------|-2-2---2---x-2-2--|-2---x-2-2--------| x 2
A|-2-2---2---x-2-2--|-2---x-2-2--------|-2-2---2---x-2-2--|-2---x-2-2--------|
E|-0-0---0---x-0-0--|-0---x-0-0--------|-0-0---0---x-0-0--|-0---x-0-0--------|

Guitar 2 (light):

E|------------------|------------------|------------------|------------------|
B|------------------|------------------|------------------|------------------|
G|------------------|------------------|------------------|------------------|
D|------------------|------------------|------------------|------------------|
A|------------------|------------------|------------------|------------------|
E|------------------|------------------|------------------|------------------|

E|------------------|------------------|------------------|------------------|
B|------------------|------------------|------------------|------------------|
G|-9-9---9---x-9-9--|-9---x-9-9--------|-9-9---9---x-9-9--|-9---x-9-9--------|
D|------------------|------------------|------------------|------------------| x 2
A|-7-7---7---x-7-7--|-7---x-7-7--------|-7-7---7---x-7-7--|-7---x-7-7--------|
E|------------------|------------------|------------------|------------------|

Guitar 1:

E|------------------|------------------|------------------|------------------|
B|------------------|------------------|------------------|------------------|
G|-5-5-5-5-5-5-5-5--|-5-5-5-5-5-5-5-5--|------------------|------------------|
D|-5-5-5-5-5-5-5-5--|-5-5-5-5-5-5-5-5--|-7-7-7-7-7-7-7-7--|-7-7-7-7-7-7-7-7--|
A|-3-3-3-3-3-3-3-3--|-3-3-3-3-3-3-3-3--|-7-7-7-7-7-7-7-7--|-7-7-7-7-7-7-7-7--|
E|------------------|------------------|-5-5-5-5-5-5-5-5--|-5-5-5-5-5-5-5-5--|

E|------------------|------------------|------------------|------------------|
B|------------------|------------------|------------------|------------------|
G|------------------|------------------|-7-7-7-7-7-7-7-7--|-7-7-7-7-7-7-7-7--|
D|-2-2-2-2-2-2-2-2--|-2-2-2-2-2-2-2-2--|-7-7-7-7-7-7-7-7--|-7-7-7-7-7-7-7-7--|
A|-2-2-2-2-2-2-2-2--|-2-2-2-2-2-2-2-2--|-5-5-5-5-5-5-5-5--|-5-5-5-5-5-5-5-5--|
E|-0-0-0-0-0-0-0-0--|-0-0-0-0-0-0-0-0--|------------------|------------------|

E|------------------|------------------|------------------|------------------|
B|------------------|------------------|------------------|------------------|
G|-5-5-5-5-5-5-5-5--|-5-5-5-5-5-5-5-5--|------------------|------------------|
D|-5-5-5-5-5-5-5-5--|-5-5-5-5-5-5-5-5--|-7-7-7-7-7-7-7-7--|-7-7-7-7-7-7-7-7--|
A|-3-3-3-3-3-3-3-3--|-3-3-3-3-3-3-3-3--|-7-7-7-7-7-7-7-7--|-7-7-7-7-7-7-7-7--|
E|------------------|------------------|-5-5-5-5-5-5-5-5--|-5-5-5-5-5-5-5-5--|

E|------------------|------------------|------------------|------------------|
B|------------------|------------------|------------------|------------------|
G|------------------|------------------|------------------|------------------|
D|-2-2---2---x-2-2--|-2---x-2-2--------|-2-2---2---x-2-2--|-2---x-2-2--------|
A|-2-2---2---x-2-2--|-2---x-2-2--------|-2-2---2---x-2-2--|-2---x-2-2--------|
E|-0-0---0---x-0-0--|-0---x-0-0--------|-0-0---0---x-0-0--|-0---x-0-0--------|

Guitar 2:

E|------------------|------------------|------------------|------------------|
B|------------------|------------------|------------------|------------------|
G|---------7-7------|---------7-7------|---------4-4------|---------4-4------|
D|-----5-5-----5-5--|-----5-5-----5-5--|-----2-2-----2-2--|-----2-2-----2-2--|
A|-7-7--------------|-7-7--------------|-0-0--------------|-0-0--------------|
E|------------------|------------------|------------------|------------------|
   p.m.p.m.    p.m.   p.m.p.m.    p.m.   p.m.p.m.    p.m.   p.m.p.m.    p.m.

E|------------------|------------------|------------------|------------------|
B|------------------|------------------|------------------|------------------|
G|---------1111212--|---------12--11---|---------9-9------|---------9---7----|
D|-----9-9----------|-----9-9---9---9--|-----7-7-----7-7--|-----7-7---7---7--|
A|-7-7--------------|-7-7--------------|-5-5--------------|-5-5--------------|
E|------------------|------------------|------------------|------------------|
   p.m.p.m.           p.m.p.m.           p.m.p.m.           p.m.p.m.

E|------------------|------------------|------------------|------------------|
B|------------------|------------------|------------------|------------------|
G|---------7-7------|---------7-7------|---------4-4------|---------4-4-4b6b4|
D|-----5-5-----5-5--|-----5-5-----5-5--|-----2-2-----2-2--|-----2-2----------|
A|-7-7--------------|-7-7--------------|-0-0--------------|-0-0--------------|
E|------------------|------------------|------------------|------------------|
   p.m.p.m.    p.m.   p.m.p.m.    p.m.   p.m.p.m.    p.m.   p.m.p.m.    p.m.


E|------------------|------------------|------------------|------------------|
B|------------------|------------------|------------------|------------------|
G|-9-9---9---x-9-9--|-9---x-9-9--------|-9-9---9---x1111--|11---x1212--------|
D|------------------|------------------|------------------|------------------|
A|-7-7---7---x-7-7--|-7---x-7-7--------|-7-7---7---x-9-9--|-9---x1010--------|
E|------------------|------------------|------------------|------------------|


Verse 2:
------------------------------------------------------------------------------

Guitar 1: (clean)

E|-----20--19-------|-19--18------18---|-----18--17-------|-17--15------14---|
B|-17----------17---|---------17-------|-17----------17---|---------17-------|
G|------------------|------------------|------------------|------------------|
D|------------------|------------------|------------------|------------------| x 2
A|------------------|------------------|------------------|------------------|
E|------------------|------------------|------------------|------------------|

E|-----20//19-------|-----14//15-------|-17//15------15//-|-14------14//15---|
B|-17----------17---|-17----------17---|---------17-------|-----17-----------|
G|------------------|------------------|------------------|------------------|
D|------------------|------------------|------------------|------------------|
A|------------------|------------------|------------------|------------------|
E|------------------|------------------|------------------|------------------|

E|-----20//19-------|-----14//15-------|-17//15------15//-|-14---------------|
B|-17----------17---|-17----------17---|---------17-------|-----17--16-------|
G|------------------|------------------|------------------|------------------|
D|------------------|------------------|------------------|------------------| x 2
A|------------------|------------------|------------------|------------------|
E|------------------|------------------|------------------|------------------|


Bridge:
------------------------------------------------------------------------------

Guitar 1:

E|------------------|------------------|
B|------------------|------------------|
G|-9-9-12-9-11-9---9|-9-12-9-9-11-9---9|
D|---------------11-|---------------11-| x 7
A|------------------|------------------|
E|------------------|------------------|
   p.m.p.m.p.m.p.m.p.m.p.m.p.m.p.m.p.m

  Crescendo and gradually release palm mute.

Guitar 2:

E|-12---------------|---------15-------|-14---------------|---------14-------|
B|-------------12---|------------------|-------------15---|------------------|
G|------------------|------------------|------------------|------------------|
D|------------------|------------------|------------------|------------------|
A|------------------|------------------|------------------|------------------|
E|------------------|------------------|------------------|------------------|

E|-12---------------|---------15-------|-14---------------|---------14-------|
B|-------------12---|------------------|-------------15---|------------------|
G|------------------|------------------|------------------|------------------|
D|------------------|------------------|------------------|------------------|
A|------------------|------------------|------------------|------------------|
E|------------------|------------------|------------------|------------------|
  softer...

E|-12---------------|---------15-------|-12---------------|------------------|
B|-------------12---|------------------|-16b17------------|------------------|
G|------------------|------------------|------------------|------------------|
D|------------------|------------------|------------------|------------------|
A|------------------|------------------|------------------|------------------|
E|------------------|------------------|------------------|------------------|
   					 Hold bend until part below.

Guitar 1:

E|------------------|------------------|
B|------------------|------------------|
G|-9-9---9---x-9-9--|-9---x-x----------|
D|------------------|------------------|
A|-7-7---7---x-7-7--|-7---x-x----------|
E|------------------|------------------|

Guitar 2:

E|------------------|------------------|
B|------------------|------------------|
G|------------------|------------------|
D|-8-8---8---x-8-8--|-8---x-x----------|
A|------------------|------------------|
E|-6-6---6---x-6-6--|-6---x-x----------|


Chorus/Outro
------------------------------------------------------------------------------

Guitar 1:

E|------------------|------------------|------------------|------------------|
B|------------------|------------------|------------------|------------------|
G|-5-5-5-5-5-5-5-5--|-5-5-5-5-5-5-5-5--|------------------|------------------|
D|-5-5-5-5-5-5-5-5--|-5-5-5-5-5-5-5-5--|-7-7-7-7-7-7-7-7--|-7-7-7-7-7-7-7-7--|
A|-3-3-3-3-3-3-3-3--|-3-3-3-3-3-3-3-3--|-7-7-7-7-7-7-7-7--|-7-7-7-7-7-7-7-7--|
E|------------------|------------------|-5-5-5-5-5-5-5-5--|-5-5-5-5-5-5-5-5--|

E|------------------|------------------|------------------|------------------|
B|------------------|------------------|------------------|------------------|
G|------------------|------------------|-7-7-7-7-7-7-7-7--|-7-7-7-7-7-7-7-7--|
D|-2-2-2-2-2-2-2-2--|-2-2-2-2-2-2-2-2--|-7-7-7-7-7-7-7-7--|-7-7-7-7-7-7-7-7--|
A|-2-2-2-2-2-2-2-2--|-2-2-2-2-2-2-2-2--|-5-5-5-5-5-5-5-5--|-5-5-5-5-5-5-5-5--|
E|-0-0-0-0-0-0-0-0--|-0-0-0-0-0-0-0-0--|------------------|------------------|

E|------------------|------------------|------------------|------------------|
B|------------------|------------------|------------------|------------------|
G|-5-5-5-5-5-5-5-5--|-5-5-5-5-5-5-5-5--|------------------|------------------|
D|-5-5-5-5-5-5-5-5--|-5-5-5-5-5-5-5-5--|-7-7-7-7-7-7-7-7--|-7-7-7-7-7-7-7-7--|
A|-3-3-3-3-3-3-3-3--|-3-3-3-3-3-3-3-3--|-7-7-7-7-7-7-7-7--|-7-7-7-7-7-7-7-7--|
E|------------------|------------------|-5-5-5-5-5-5-5-5--|-5-5-5-5-5-5-5-5--|

Guitar 2:

E|------------------|------------------|------------------|------------------|
B|------------------|------------------|------------------|------------------|
G|------------------|------------------|------------------|------------------|
D|------------------|------------------|------------------|------------------|
A|------------------|------------------|------------------|------------------|
E|------------------|------------------|------------------|------------------|

E|------------------|------------------|------------------|------------------|
B|------------------|------------------|------------------|------------------|
G|1212121212121212--|121212121111-9-9--|------------------|------------------|
D|------------------|------------------|------------------|------------------|
A|1010101010101010--|10101010-9-9-7-7--|------------------|------------------|
E|------------------|------------------|------------------|------------------|
                      Decrescendo

Guitar 1:

E|------------------|------------------|------------------|------------------|
B|------------------|------------------|------------------|------------------|
G|-9-9---9---x-9-9--|-9---x-9-9------x-|-7-7---7---x-7-7--|-7---x-7-7------x-|
D|------------------|------------------|------------------|------------------|
A|-7-7---7---x-7-7--|-7---x-7-7------x-|-5-5---5---x-5-5--|-5---x-5-5------x-|
E|------------------|------------------|------------------|------------------|

E|------------------|------------------|------------------|------------------|
B|------------------|------------------|------------------|------------------|
G|-9-9---9---x-9-9--|-9---x-9-9------x-|-5-5---5---x-5-5--|-4---x-4-4--x-4-4-|
D|------------------|------------------|------------------|------------------| x 2
A|-7-7---7---x-7-7--|-7---x-7-7------x-|-3-3---3---x-3-3--|-2---x-2-2--x-2-2-|
E|------------------|------------------|------------------|------------------|

E|------------------|------------------|
B|------------------|------------------|
G|-9-9---9---x-9-9--|-9---x-9-9/-----x-|
D|------------------|------------------|
A|-7-7---7---x-7-7--|-7---x-7-7/-----x-|
E|------------------|------------------|

Guitar 2:

E|------------------|------------------|------------------|------------------|
B|------------------|------------------|------------------|------------------|
G|1212--12---x1212--|12---x1212------x-|1111--11---x1111--|11---x1111------x-|
D|------------------|------------------|------------------|------------------|
A|1010--10---x1010--|10---x1010------x-|-9-9---9---x-9-9--|-9---x-9-9------x-|
E|------------------|------------------|------------------|------------------|

E|------------------|------------------|------------------|------------------|
B|------------------|------------------|------------------|------------------|
G|1212--12---x1212--|12---x1212------x-|1414--14---x1414--|11---x1111--x1111-|
D|------------------|------------------|------------------|------------------| x 2
A|1010--10---x1010--|10---x1010------x-|1212--12---x1212--|-9---x-9-9--x-9-9-|
E|------------------|------------------|------------------|------------------|

E|------------------|------------------|
B|------------------|------------------|
G|1212--12---x1212--|12---x1212/-------|
D|------------------|------------------|
A|1010--10---x1010--|10---x1010/-------|
E|------------------|------------------|

Guitar 3: (after one time around)

E|-12---------------|---------15-------|-14---------------|---------14-------|
B|-------------12---|------------------|-------------15---|------------------|
G|------------------|------------------|------------------|------------------|
D|------------------|------------------|------------------|------------------|
A|------------------|------------------|------------------|------------------|
E|------------------|------------------|------------------|------------------|

E|-12---------------|---------15-------|-14---------------|---------14-------|
B|-------------12---|------------------|-------------15---|------------------|
G|------------------|------------------|------------------|------------------|
D|------------------|------------------|------------------|------------------|
A|------------------|------------------|------------------|------------------|
E|------------------|------------------|------------------|------------------|
  softer...

E|-12---------------|------------------|------------------|------------------|
B|------------------|------------------|------------------|------------------|
G|------------------|------------------|------------------|------------------|
D|------------------|------------------|------------------|------------------|
A|------------------|------------------|------------------|------------------|
E|------------------|------------------|------------------|------------------|


*****************************************
* Song   : Consequential Apathy		*
* Artist : Rx Bandits			*
* Album  : Progress			*
* Year   : 2001				*
*****************************************
    Tabbed by: Bill Streckfus

Tempo = 208 bpm

Intro:
------------------------------------------------------------------------------

Guitar 1:

E|-17---------------|------------------|
B|-15---------------|------------------|
G|-14---------------|------------------|
D|-12---------------|------------------| x 3
A|------------------|------------------|
E|------------------|------------------|

E|-----x-x---x-x-x--|---x-x-x---x-x-x--|
B|-----x-x---x-x-x--|---x-x-x---x-x-x--|
G|-----x-x---x-x-x--|---x-x-x---x-x-x--| x 2
A|------------------|------------------|
E|------------------|------------------|

Verse:
------------------------------------------------------------------------------

Guitar 1:

E|-1-1-x-x-x-x-x-x--|-x-x-x-x-x-x-x-x--|-x-1-x-x-x-0-x-x--|-x-1-x-x-x-x-x-x--|
B|-3-3-x-x-x-x-x-x--|-x-x-x-x-x-x-x-x--|-x-1-x-x-x-1-x-x--|-x-3-x-x-x-x-x-x--|
G|-2-2-x-x-x-x-x-x--|-x-x-x-x-x-x-x-x--|-x-2-x-x-x-0-x-x--|-x-2-x-x-x-x-x-x--|
D|------------------|------------------|------------------|------------------| x 2
A|------------------|------------------|------------------|------------------|
E|------------------|------------------|------------------|------------------|

  Mostly muted these first two times around.


E|-1-1-x-x-x-x-x-x--|-1-1-x-x-x-x-x-x--|-x-1-x-x-x-0-x-x--|-x-111-1-1-1-1-1--|
B|-3-3-x-x-x-x-x-x--|-3-3-x-x-x-x-x-x--|-x-1-x-x-x-1-x-x--|-x-333-3-3-3-3-3--|
G|-2-2-x-x-x-x-x-x--|-2-2-x-x-x-x-x-x--|-x-2-x-x-x-0-x-x--|-x-222-2-2-2-2-2--|
D|------------------|------------------|------------------|------------------|
A|------------------|------------------|------------------|------------------|
E|------------------|------------------|------------------|------------------|

Guitar 1 (distortion):

E|------------------|------------------|------------------|------------------|
B|------------------|------------------|------------------|------------------|
G|---------5-5------|------------------|---------5-5------|------------------|
D|-3-3-----5-5------|---------5-7-5----|-3-3-----5-5------|---7---------5-7--|
A|-3-3-----3-3------|-5-5-7-8-------7--|-3-3-----3-3------|-5---8-5-7-8------|
E|-1-1--------------|------------------|-1-1--------------|------------------|
                      p.m.p.m.p.m.p.m.                      p.m.p.m.p.m.p.m.

E|------------------|------------------|------------------|------------------|
B|------------------|------------------|------------------|------------------|
G|---------5-5------|------------------|------------------|------------------|
D|-3-3-----5-5------|-----8-8-7-7------|-----7-7-----7-7--|-----8-8-----7-7--|
A|-3-3-----3-3------|-5-5---------8-7--|-----7-7-----7-7--|-----8-8-----7-7--|
E|-1-1--------------|------------------|-5-5-5-5-5-5-5-5--|-6-6-6-6-5-5-5-5--|
                      p.m.p.m.p.m.p.m.   p.m.    p.m.       p.m.    p.m.


Guitar 2 (distortion):

E|------------------|------------------|------------------|------------------|
B|------------------|------------------|------------------|------------------|
G|------------------|------------------|------------------|------------------|
D|------------------|-------3-5-7-5----|------------------|---7---------5-7--|
A|------------------|-5-5-7---------7--|------------------|-5---8-5-7-8------|
E|------------------|------------------|------------------|------------------|
                      p.m.p.m.p.m.p.m.                      p.m.p.m.p.m.p.m.

E|------------------|------------------|------------------|------------------|
B|------------------|------------------|------------------|------------------|
G|------------------|------------------|------------------|------------------|
D|------------------|-----8-8-7-7------|-----7-7-----7-7--|-----8-8-----7-7--|
A|------------------|-5-5---------8-7--|-----7-7-----7-7--|-----8-8-----7-7--|
E|------------------|------------------|-5-5-5-5-5-5-5-5--|-6-6-6-6-5-5-5-5--|
                      p.m.p.m.p.m.p.m.   p.m.    p.m.       p.m.    p.m.

Chorus
------------------------------------------------------------------------------

Guitar 1:

E|-3-3-x-3-x-3-x-3--|-x-3-x-3-x-3-x-3--|-x-3-x-3-x-3-x-3--|-x-3-x-3-x-3-x-3--|
B|-5-5-x-5-x-5-x-5--|-x-5-x-5-x-5-x-5--|-x-5-x-5-x-5-x-5--|-x-5-x-5-x-5-x-5--|
G|-4-4-x-4-x-4-x-4--|-x-4-x-4-x-4-x-4--|-x-4-x-4-x-4-x-4--|-x-4-x-4-x-4-x-4--|
D|------------------|------------------|------------------|------------------|
A|------------------|------------------|------------------|------------------|
E|------------------|------------------|------------------|------------------|

E|-xx3-x-3-x-3-x-3--|-x-3-x-3-x-3-x-3--|
B|-xx5-x-5-x-5-x-5--|-x-5-x-5-x-5-x-5--|
G|-xx4-x-4-x-4-x-4--|-x-4-x-4-x-4-x-4--|
D|------------------|------------------|
A|------------------|------------------|
E|------------------|------------------|

Guitar 1 (distorted):

E|------------------|------------------|
B|------------------|------------------|
G|-7---7---x-x-x-7--|---7-7---x-x-x----|
D|-7---7---x-x-x-7--|---7-7---x-x-x----|
A|-5---5---x-x-x-5--|---5-5---x-x-x----|
E|------------------|------------------|

Guitar 2 (distorted):


E|------------------|------------------|
B|------------<7>---|--------<7>-------|
G|-7---7----<7>--7--|---7-7----<7>-----|
D|-7---7--<7>----7--|---7-7------<7>---|
A|-5---5---------5--|---5-5------------|
E|------------------|------------------|
         harm.              harm.


Chorus Ending
------------------------------------------------------------------------------

First Chorus:

Guitars 1 & 2 (distorted):

E|------------------|------------------|
B|------------------|------------------|
G|-6---6---x-x-x-5--|---5-5---x-x-x----|
D|-6---6---x-x-x-5--|---5-5---x-x-x----|
A|-4---4---x-x-x-3--|---3-3---x-x-x----|
E|------------------|------------------|

Second Chorus:

E|------------------|------------------|
B|------------------|------------------|
G|------------------|------------------|
D|-2----------------|------------------|
A|-2----------------|------------------|
E|-0----------------|------------------|

Verse 2
------------------------------------------------------------------------------

Guitar 1:

E|-13---------------|------------------|-17---------------|------------------|
B|-15---------------|------------------|-17---------------|------------------|
G|-14---------------|------------------|-14---------------|------------------|
D|-12---------------|------------------|-15---------------|------------------|
A|------------------|------------------|------------------|------------------|
E|------------------|------------------|------------------|------------------|

Everything else remains the same as Verse 1.

Outro
------------------------------------------------------------------------------

Guitar 1 (flanger):

E|------------------|------------------|
B|------------------|------------------|
G|------------------|------------------|
D|-----x-x---x-x-x--|---x-x-x---x-x-x--| x 2
A|-----x-x---x-x-x--|---x-x-x---x-x-x--|
E|-----x-x---x-x-x--|---x-x-x---x-x-x--|


Guitars 1 & 2 (distorted):

E|------------------|------------------|------------------|-------2h3--------|
B|------------------|------------------|------------------|-----------5p3p0--|
G|------------------|------------------|-7---7---x-x-x----|------------------|
D|-2---2---x-x-x-2--|-x-2-2---x-x-x-x--|-7---7---x-x-x-7--|-x-7--------------| x 2
A|-2---2---x-x-x-2--|-x-2-2---x-x-x-x--|-5---5---x-x-x-7--|-x-7--------------|
E|-0---0---x-x-x-0--|-x-0-0---x-x-x-x--|---------------5--|-x-5--------------|

Guitar 1 (distorted):

E|------------------|------------------|------------------|------------------|
B|------------------|------------------|------------------|------------------|
G|-9---9-9-9-9------|-9---9-9-9-9------|-9---9-9-9-9------|-9-9-9-9-x-x-x-x--|
D|------------------|------------------|------------------|------------------| x 2
A|-7---7-7-7-7------|-7---7-7-7-7------|-7---7-7-7-7------|-7-7-7-7-x-x-x-x--|
E|------------------|------------------|------------------|------------------|

E|------------------|------------------|------------------|------------------|
B|------------------|------------------|------------------|------------------|
G|-9---9-9-9-9------|-9---9-9-9-9------|-9---9-9-9-9------|-9-9-9-9-9-9-9-9--|
D|------------------|------------------|------------------|------------------|
A|-7---7-7-7-7------|-7---7-7-7-7------|-7---7-7-7-7------|-7-7-7-7-7-7-7-7--|
E|------------------|------------------|------------------|------------------|

  Hold the notes out this time.

E|------------------|------------------|------------------|------------------|
B|------------------|------------------|------------------|------------------|
G|-9---9-9-9-9------|-9---9-9-9-9------|-9---9-9-9-9------|------------------|
D|------------------|------------------|------------------|-2-2-2-2-2--------|
A|-7---7-7-7-7------|-7---7-7-7-7------|-7---7-7-7-7------|-2-2-2-2-2--------|
E|------------------|------------------|------------------|-0-0-0-0-0--------|

Guitar 2 (distorted):

E|------------------|------------------|------------------|------------------|
B|------------------|------------------|------------------|------------------|
G|-9---9-9-9-9------|11--11111111------|12--12121212------|-9-9-9-9-x-x-x-x--|
D|------------------|------------------|------------------|------------------| x 2
A|-7---7-7-7-7------|-9---9-9-9-9------|10--10101010------|-7-7-7-7-x-x-x-x--|
E|------------------|------------------|------------------|------------------|

E|------------------|------------------|------------------|------------------|
B|------------------|------------------|------------------|------------------|
G|-9---9-9-9-9------|11--11111111------|12--12121212------|-9-9-9-9-7-7-7-7--|
D|------------------|------------------|------------------|------------------|
A|-7---7-7-7-7------|-9---9-9-9-9------|10--10101010------|-7-7-7-7-7-7-7-7--|
E|------------------|------------------|------------------|------------------|

E|------------------|------------------|------------------|------------------|
B|------------------|------------------|------------------|------------------|
G|-9---9-9-9-9------|11--11111111------|12--12121212------|------------------|
D|------------------|------------------|------------------|-2-2-2-2-2--------|
A|-7---7-7-7-7------|-9---9-9-9-9------|10--10101010------|-2-2-2-2-2--------|
E|------------------|------------------|------------------|-0-0-0-0-0--------|

Guitar 3 (distorted):

E|------------------|------------------|------------------|------------------|
B|------------------|------------------|------------------|------------------|
G|12--12121212------|14--14141414------|16--16161616------|121414141414141414|
D|------------------|------------------|------------------|------------------| x 2
A|10--10101010------|12--12121212------|14--14141414------|101212121212121212|
E|------------------|------------------|------------------|------------------|

E|------------------|------------------|------------------|------------------|
B|------------------|------------------|------------------|------------------|
G|12--12121212------|14--14141414------|16--16161616------|-9-9-9-9-9/-------|
D|------------------|------------------|------------------|------------------|
A|10--10101010------|12--12121212------|14--14141414------|-7-7-7-7-7/-------|
E|------------------|------------------|------------------|------------------|

*****************************************
* Song   : Analog Boy			*
* Artist : Rx Bandits			*
* Album  : Progress			*
* Year   : 2001				*
*****************************************
    Tabbed by: Bill Streckfus

Tempo = 195 bpm

Intro:
------------------------------------------------------------------------------

Guitar 1:

E|------------------|------------------|------------------|------------------|
B|------------------|------------------|------------------|------------------|
G|------------------|------------------|------------------|------------------|
D|---------4-4------|---------6-6------|---------8-8------|---------8-8------|
A|-6-6-6-6-----6-6--|-8-8-8-8-----8-8--|-9-9-9-9-----9-9--|-9-9-9-9-----9-9--|
E|------------------|------------------|------------------|------------------|
   p.m.p.m.p.m.p.m.p.m.p.m.p.m.p.m.p.m   p.m.p.m.p.m.p.m.p.m.p.m.p.m.p.m.p.m

E|------------------|------------------|------------------|------------------|
B|------------------|------------------|------------------|------------------|
G|------------------|------------------|------------------|------------------|
D|---------4-4------|---------4-4------|---------4-4------|---------4-4------|
A|-6-6-6-6-----6-6--|-4-4-4-4-----4-4--|-6-6-6-6-----6-6--|-6-6-6-6-----6-6--|
E|------------------|------------------|------------------|------------------|
   p.m.p.m.p.m.p.m.p.m.p.m.p.m.p.m.p.m   p.m.p.m.p.m.p.m.p.m.p.m.p.m.p.m.p.m

E|------------------|------------------|------------------|------------------|
B|------------------|------------------|------------------|------------------|
G|------------------|------------------|------------------|------------------|
D|---------4-4------|---------6-6------|---------8-8------|1111-----8-8------|
A|-6-6-6-6-----6-6--|-8-8-8-8-----8-8--|-9-9-9-9-----9-9--|-----9-9-----9-9--|
E|------------------|------------------|------------------|------------------|
   p.m.p.m.p.m.p.m.p.m.p.m.p.m.p.m.p.m   p.m.p.m.    p.m.       p.m.    p.m

E|------------------|------------------|------------------|------------------|
B|------------------|------------------|------------------|------------------|
G|------------------|------------------|------------------|------------------|
D|---------4-4------|---------4-4------|---------4-4------|---------4-4------|
A|-6-6-6-6-----6-6--|-4-4-4-4-----4-4--|-6-6-6-6-----6-6--|-6-6-6-6-----6-6--|
E|------------------|------------------|------------------|------------------|
   p.m.p.m.p.m.p.m.p.m.p.m.p.m.p.m.p.m   p.m.p.m.p.m.p.m.p.m.p.m.p.m.p.m.p.m

Verse:
------------------------------------------------------------------------------

Guitars 1 & 2:

E|-----7-------4----|-----6-------6----|----11-------7----|-----7------11----|
B|-----9-------4----|-----7-------7----|----12-------7----|-----7------12----|
G|-----8-------4----|-----6-------6----|----11-------8----|-----8------11----|
D|------------------|------------------|------------------|------------------|
A|------------------|------------------|------------------|------------------|
E|------------------|------------------|------------------|------------------|


E|-----4-------2----|-----2-------2----|-----4-------4----|-----4-------4----|
B|-----5-------2----|-----2-------2----|-----4-------4----|-----4-------4----|
G|-----4-------3----|-----3-------3----|-----4-------4----|-----4-------4----|
D|------------------|------------------|------------------|------------------|
A|------------------|------------------|------------------|------------------|
E|------------------|------------------|------------------|------------------|

E|-----7-------4----|-----6-------6----|----11-------7----|-----7------11----|
B|-----9-------4----|-----7-------7----|----12-------7----|-----7------12----|
G|-----8-------4----|-----6-------6----|----11-------8----|-----8------11----|
D|------------------|------------------|------------------|------------------|
A|------------------|------------------|------------------|------------------|
E|------------------|------------------|------------------|------------------|

E|-----4-------2----|-----2-------2----|------------------|------------------|
B|-----5-------2----|-----2-------2----|------------------|------------------|
G|-----4-------3----|-----3-------3----|------------------|------------------|
D|------------------|------------------|------------------|------------------|
A|------------------|------------------|------------------|------------------|
E|------------------|------------------|------------------|------------------|

Chorus:
------------------------------------------------------------------------------

Guitars 1 & 2 (distorted):

E|------------------|------------------|------------------|------------------|
B|------------------|------------------|------------------|------------------|
G|-4---x-x----------|---------8---x-x--|---------8---x-x--|------------------|
D|-4---x-x-4---x-x--|-6---x-x-8---x-x--|-2---x-x-8---x-x--|-2---x-x-4-4-4-4--| x 3
A|-2---x-x-4---x-x--|-6---x-x-6---x-x--|-2---x-x-6---x-x--|-2---x-x-4-4-4-4--|
E|---------2---x-x--|-4---x-x----------|-0---x-x----------|-0---x-x-2-2-2-2--|


E|------------------|------------------|------------------|------------------|
B|------------------|------------------|------------------|------------------|
G|-4---x-x----------|---------8---x-x--|---------8---x-x--|------------------|
D|-4---x-x-4---x-x--|-6---x-x-8---x-x--|-2---x-x-8---x-x--|-2---x-x-4-4------|
A|-2---x-x-4---x-x--|-6---x-x-6---x-x--|-2---x-x-6---x-x--|-2---x-x-4-4-4-4--|
E|---------2---x-x--|-4---x-x----------|-0---x-x----------|-0---x-x-2-2-2-2--|
 								        p.m.

Verse 2:
------------------------------------------------------------------------------

Guitar 1:

E|------------------|------------------|------------------|------------------|
B|-------4----------|-------7----------|-------7----------|-----------12/----|
G|---------4--------|---------6--------|---------8--------|-------8----------|
D|-----6-----6------|-----8-----8------|-----9-----9------|-----9---9--------|
A|------------------|------------------|------------------|------------------|
E|------------------|------------------|------------------|------------------|
       p.m.p.m.		  p.m.p.m.	     p.m.p.m.           p.m.p.m.

E|------------------|------------------|------------------|-------------4----|
B|-------4----------|-------5----------|-------4----------|-------------4----|
G|---------4--------|---------3--------|---------4--------|-------------4----|
D|-----2-----2------|-----4-----4------|-----6-----6------|------------------|
A|------------------|------------------|------------------|------------------|
E|------------------|------------------|------------------|------------------|
       p.m.p.m.		  p.m.p.m.	     p.m.p.m.           p.m.p.m.

Guitar 2 (light):

E|------------------|------------------|------------------|------------------|
B|------------------|------------------|------------------|------------------|
G|------------------|------------------|------------------|------------------|
D|------------------|------------------|------------------|------------------|
A|------------------|------------------|------------------|------------------|
E|------------------|------------------|------------------|------------------|

E|------------------|------------------|------------------|-------------4----|
B|------------------|------------------|------------------|-------------4----|
G|---------4-4------|---------4-4------|---------4-4------|---------4-4-4----|
D|-6-6-6-6-----6-6--|-4-4-4-4-----4-4--|-6-6-6-6-----6-6--|-6-6-6-6----------|
A|------------------|------------------|------------------|------------------|
E|------------------|------------------|------------------|------------------|

Then back to Verse 1 progression.

Chorus 2:
------------------------------------------------------------------------------

Guitars 1 & 2 (distorted):

E|------------------|------------------|------------------|------------------|
B|------------------|------------------|------------------|------------------|
G|-4---x-x----------|---------8---x-x--|---------8---x-x--|------------------|
D|-4---x-x-4---x-x--|-6---x-x-8---x-x--|-2---x-x-8---x-x--|-2---x-x-4-4-4-4--| x 3
A|-2---x-x-4---x-x--|-6---x-x-6---x-x--|-2---x-x-6---x-x--|-2---x-x-4-4-4-4--|
E|---------2---x-x--|-4---x-x----------|-0---x-x----------|-0---x-x-2-2-2-2--|


E|------------------|------------------|------------------|------------------|
B|------------------|------------------|------------------|------------------|
G|-4---x-x----------|---------8---x-x--|---------8---x-x--|------------------|
D|-4---x-x-4---x-x--|-6---x-x-8---x-x--|-2---x-x-8---x-x--|-2---x-x-4--------|
A|-2---x-x-4---x-x--|-6---x-x-6---x-x--|-2---x-x-6---x-x--|-2---x-x-4--------|
E|---------2---x-x--|-4---x-x----------|-0---x-x----------|-0---x-x-2--------|


Bridge:
------------------------------------------------------------------------------

Guitar 1:

E|-x-x-4---x-x-5h6--|---x-2----x-x-2-2-|-x-x-4---x-4-x-x--|-6-x-x-6-x-x-6-4--|
B|-x-x-4---x-x-4----|---x-2----x-x-2-2-|-x-x-5---x-5-x-x--|-5-x-x-5-x-x-5-5--|
G|-x-x-4---x-x------|---x-3----x-x-3-3-|-x-x-4---x-4-x-x--|-4-x-x-4-x-x-4-4--|
D|------------------|------------------|------------------|------------------| x 3
A|------------------|------------------|------------------|------------------|
E|------------------|------------------|------------------|------------------|

E|-x-x-4---x-x-5h6--|---x-2----x-x-2-2-|------------------|------------------|
B|-x-x-4---x-x-4----|---x-2----x-x-2-2-|------------------|------------------|
G|-x-x-4---x-x------|---x-3----x-x-3-3-|------------------|------------------|
D|------------------|------------------|------------------|------------------|
A|------------------|------------------|------------------|------------------|
E|------------------|------------------|------------------|------------------|

Add additional muted strokes after each repeat.

Guitars 1 & 2 (distorted):

E|------------------|------------------|------------------|------------------|
B|------------------|------------------|------------------|------------------|
G|-------4----------|------------------|------------------|------------------|
D|-2-----4-----4----|------------------|-2-----6-----4----|------------------|
A|-2-----2-----4----|------------------|-2-----6-----4----|------------------|
E|-0-----------2----|------------------|-0-----4-----2----|------------------|

Chorus 3:
------------------------------------------------------------------------------

Guitar 1 (distorted):

E|------------------|------------------|------------------|------------------|
B|------------------|------------------|------------------|------------------|
G|-4---x-x----------|---------8---x-x--|---------8---x-x--|------------------|
D|-4---x-x-4---x-x--|-6---x-x-8---x-x--|-2---x-x-8---x-x--|-2---x-x-4-4-4-4--|
A|-2---x-x-4---x-x--|-6---x-x-6---x-x--|-2---x-x-6---x-x--|-2---x-x-4-4-4-4--|
E|---------2---x-x--|-4---x-x----------|-0---x-x----------|-0---x-x-2-2-2-2--|

E|------------------|------------------|------------------|------------------|
B|------------------|------------------|------------------|------------------|
G|-4---x-x----------|---------8---x-x--|-----------4------|------------------|
D|-4---x-x-4---x-x--|-6---x-x-8---x-x--|-2---2---2-4---4--|-------4-4-4-4-4--|
A|-2---x-x-4---x-x--|-6---x-x-6---x-x--|-2---2---2-2---4--|-------4-4-4-4-4--|
E|---------2---x-x--|-4---x-x----------|-0---0---0-----2--|-------2-2-2-2-2--|

Guitar 2 (distorted):

E|------------------|------------------|------------------|------------------|
B|------------------|------------------|------------------|------------------|
G|-4----------------|------------------|---------8---x-x--|------------------|
D|-4----------------|------------------|-2---x-x-8---x-x--|-2---x-x-4-4-4-4--|
A|-2----------------|------------------|-2---x-x-6---x-x--|-2---x-x-4-4-4-4--|
E|------------------|------------------|-0---x-x----------|-0---x-x-2-2-2-2--|

E|------------------|------------------|------------------|------------------|
B|------------------|------------------|------------------|------------------|
G|-4----------------|------------------|-----------4------|------------------|
D|-4----------------|------------------|-2---2---2-4---4--|-------4-4-4-4-4--|
A|-2----------------|------------------|-2---2---2-2---4--|-------4-4-4-4-4--|
E|------------------|------------------|-0---0---0-----2--|-------2-2-2-2-2--|

Guitars 1 & 2 (distorted):

E|------------------|------------------|------------------|------------------|
B|------------------|------------------|------------------|------------------|
G|-4---x-x----------|---------8---x-x--|---------8---x-x--|------------------|
D|-4---x-x-4---x-x--|-6---x-x-8---x-x--|-2---x-x-8---x-x--|-2---x-x-4-4-4-4--| x 2
A|-2---x-x-4---x-x--|-6---x-x-6---x-x--|-2---x-x-6---x-x--|-2---x-x-4-4-4-4--|
E|---------2---x-x--|-4---x-x----------|-0---x-x----------|-0---x-x-2-2-2-2--|

Guitar 3 (distorted):

E|------------------|------------------|------------------|------------------|
B|------------------|------------------|------------------|------------------|
G|-4---x-x-6---x-x--|-8---x-x11---x-x--|-9---x-x-8---x-x--|-9---x-x-6---x-x--|
D|------------------|------------------|------------------|------------------| x 2
A|-2---x-x-4---x-x--|-6---x-x-9---x-x--|-7---x-x-6---x-x--|-7---x-x-4---x-x--|
E|------------------|------------------|------------------|------------------|

Guitars 1 & 2 (distorted)

E|------------------|------------------|------------------|------------------|
B|------------------|------------------|------------------|------------------|
G|-4-4-4-4-6-6-6-6--|-8-8-8-8-8-8-8-8--|---------8---x-x--|------------------|
D|------------------|------------------|-2---x-x-8---x-x--|-2---x-x-4-4-4-4--| x 2
A|-2-2-2-2-4-4-4-4--|-6-6-6-6-6-6-6-6--|-2---x-x-6---x-x--|-2---x-x-4-4-4-4--|
E|------------------|------------------|-0---x-x----------|-0---x-x-2-2-2-2--|

Guitar 3 (distorted):

E|------------------|------------------|------------------|------------------|
B|------------------|------------------|------------------|------------------|
G|------------------|------------------|------------------|------------------|
D|------------------|------------------|------------------|------------------|
A|------------------|------------------|------------------|------------------|
E|------------------|------------------|------------------|------------------|

E|------------------|------------------|------------------|------------------|
B|------------------|------------------|------------------|------------------|
G|-8-8-8-8-9-9-9-9--|1111111113131313--|------------------|------------------|
D|------------------|------------------|------------------|------------------|
A|-6-6-6-6-7-7-7-7--|-9-9-9-911111111--|------------------|------------------|
E|------------------|------------------|------------------|------------------|

Outro
------------------------------------------------------------------------------

Guitars 1 & 2 (distorted):

E|------------------|------------------|------------------|------------------|
B|------------------|------------------|------------------|------------------|
G|------------------|------------------|-----------4------|------------------|
D|-2---2---2-6---4--|------------------|-2---2---2-4---4--|------------------|
A|-2---2---2-6---4--|------------------|-2---2---2-2---4--|------------------|
E|-0---0---0-4---2--|------------------|-0---0---0-----2--|------------------|


E|------------------|------------------|
B|------------------|------------------|
G|------------------|------------------|
D|-2---2---2-6---4--|------------------|
A|-2---2---2-6---4--|------------------|
E|-0---0---0-4---2--|------------------|

Guitar 1 (distorted):

E|------------------|------------------|
B|------------------|------------------|
G|-4-4-4-4-4-4-4-4--|-4-4-4-4-4-4-4----|
D|------------------|------------------|
A|-2-2-2-2-2-2-2-2--|-2-2-2-2-2-2-2----|
E|------------------|------------------|

Guitar 2 (distorted):

E|------------------|------------------|
B|------------------|------------------|
G|---------1111111--|1313131311111-----|
D|------------------|------------------|
A|---------9-9-9-9--|11111111-9-9-9----|
E|------------------|------------------|

Guitar 3 (distorted):

E|------------------|------------------|
B|------------------|------------------|
G|---------8-8-8-8--|-9-9-9-9-8-8-8----|
D|------------------|------------------|
A|---------6-6-6-6--|-7-7-7-7-6-6-6----|
E|------------------|------------------|

*****************************************
* Song   : Get				*
* Artist : Rx Bandits			*
* Album  : Progress			*
* Year   : 2001				*
*****************************************
    Tabbed by: Bill Streckfus

Tempo =

Intro:
------------------------------------------------------------------------------

Guitar 1:

E|------------------|------------------|------------------|------------------|
B|------------------|------------------|------------------|------------------|
G|------------------|10101010----------|--------10101010--|10101010----------|
D|-8---x-x10101010--|-8-8-8-8-8-8-8-8--|10101010-8-8-8-8--|-8-8-8-8-8-8-8-8--|
A|-6---x-x-8-8-8-8--|---------6-6-6-6--|-8-8-8-8----------|---------6-6-6-6--|
E|------------------|------------------|------------------|------------------|
   p.m.p.m.p.m.p.m.p.m.p.m.p.m.p.m.p.m.  p.m.p.m.p.m.p.m.p.m.p.m.p.m.p.m.p.m.

E|------------------|------------------|------------------|
B|------------------|------------------|------------------|
G|--------10101010--|------------------|------------------|
D|10101010-8-8-8-8--|-8-8-8-8-8-8-8-8--|1010101010101010--|
A|-8-8-8-8----------|-6-6-6-6-6-6-6-6--|-8-8-8-8-8-8-8-8--|
E|------------------|------------------|------------------|
   p.m.p.m.p.m.p.m.p.m.p.m.p.m.p.m.p.m.  p.m.p.m.p.m.p.m.

Verse:
------------------------------------------------------------------------------

Guitars 1 & 2:

E|------------------|------------------|
B|------------------|------------------|
G|------------------|------------------|
D|------------------|---5-3------------| x 7
A|-------5-3---5----|-------5---3-5----|
E|-3---6------------|---------6-----6--|

E|------------------|------------------|
B|------------------|------------------|
G|------------------|------------------|
D|------------------|------------------|
A|-6-----6-----6----|-5-----5-----5----|
E|------------------|------------------|

Guitar 3:

E|-6-6-x-x-x-x-x-x--|-x-x-x-x-x-x11-xx-|-x-x-x-x-x-x-x-x--|-x-x-x-x-x-x-x-8--|
B|-8-8-x-x-x-x-x-x--|-x-x-x-x-x-x11-xx-|-x-x-x-x-x-x-x-x--|-x-x-x-x-x-x-x-7--|
G|-7-7-x-x-x-x-x-x--|-x-x-x-x-x-x12-xx-|-x-x-x-x-x-x-x-x--|-x-x-x-x-x-x-x-7--|
D|------------------|------------------|------------------|------------------|
A|------------------|------------------|------------------|------------------|
E|------------------|------------------|------------------|------------------|

E|-x-6-x-x-x-x-x-x--|-x-x-x-x-x-x-x-x--|11----11----11----|-8-----8-----8----|
B|-x-8-x-x-x-x-x-x--|-x-x-x-x-x-x-x-x--|-8-----8-----8----|-7-----7-----7----|
G|-x-7-x-x-x-x-x-x--|-x-x-x-x-x-x-x-x--|-8-----8-----8----|-7-----7-----7----|
D|------------------|------------------|------------------|------------------|
A|------------------|------------------|------------------|------------------|
E|------------------|------------------|------------------|------------------|

Guitars 1 & 2:

E|------------------|------------------|------------------|------------------|
B|------------------|------------------|------------------|------------------|
G|-7---5-7----------|------------------|-7---5-7----------|------------------|
D|---------8--------|-----5-8-7--------|---------8--------|-----5-8-7--------|
A|-------------8----|---6---------5----|-------------8----|-666--------------|
E|------------------|------------------|------------------|------------------|

E|------------------|------------------|------------------|------------------|
B|------------------|------------------|------------------|------------------|
G|-7---5-7----------|------------------|-8-8-8-8-8-8-8-8--|-7-7-7-7-7-7-7-7--|
D|---------8--------|-----5-8-7--------|-8-8-8-8-8-8-8-8--|-7-7-7-7-7-7-7-7--|
A|-------------8----|---6---------5----|-6-6-6-6-6-6-6-6--|-5-5-5-5-5-5-5-5--|
E|------------------|------------------|------------------|------------------|
					 Crescendo

Guitar 3 (light):

E|-x-6-x-6-x-6-x-6--|-x-6-x-6-x-6-x-6--|
B|-x-8-x-8-x-8-x-8--|-x-8-x-8-x-8-x-8--|
G|-x-7-x-7-x-7-x-7--|-x-7-x-7-x-7-x-7--|
D|------------------|------------------| x 3
A|------------------|------------------|
E|------------------|------------------|

E|-6-6-6-6-6-6-6-6--|1010101010101010--|
B|-8-8-8-8-8-8-8-8--|-7-7-7-7-7-7-7-7--|
G|-8-8-8-8-8-8-8-8--|-7-7-7-7-7-7-7-7--|
D|------------------|------------------|
A|------------------|------------------|
E|------------------|------------------|

Chorus
------------------------------------------------------------------------------

Guitar 1 (distorted):

E|------------------|------------------|------------------|------------------|
B|------------------|------------------|------------------|------------------|
G|-8---x-x10---x-x--|------------------|-8---x-x10---x-x--|------------------|
D|-8---x-x10---x-x--|-8---x-x-5---x-x--|-8---x-x10---x-x--|-8-8-8-8-8-8-8-8--|
A|-6---x-x-8---x-x--|-8---x-x-5---x-x--|-6---x-x-8---x-x--|-8-8-8-8-8-8-8-8--|
E|------------------|-6---x-x-3---x-x--|------------------|-6-6-6-6-6-6-6-6--|

E|------------------|------------------|------------------|------------------|
B|------------------|------------------|------------------|------------------|
G|-8---x-x10---x-x--|------------------|------------------|------------------|
D|-8---x-x10---x-x--|-8---x-x-5---x-x--|-4-4-4-4-4-4-4-4--|-3-3-3-3-3-3-3-3--|
A|-6---x-x-8---x-x--|-8---x-x-5---x-x--|-4-4-4-4-4-4-4-4--|-3-3-3-3-3-3-3-3--|
E|------------------|-6---x-x-3---x-x--|-2-2-2-2-2-2-2-2--|-1-1-1-1-1-1-1-1--|

Guitar 2 (distorted):

E|------------------|------------------|------------------|------------------|
B|------------------|------------------|------------------|------------------|
G|-8---x-x10---x-x--|------------------|-8---x-x10---x-x--|------------------|
D|-8---x-x10---x-x--|-8---x-x-5---x-x--|-8---x-x10---x-x--|-8-8-8-8-8-8-8-8--|
A|-6---x-x-8---x-x--|-8---x-x-5---x-x--|-6---x-x-8---x-x--|-8-8-8-8-8-8-8-8--|
E|------------------|-6---x-x-3---x-x--|------------------|-6-6-6-6-6-6-6-6--|

E|------------------|------------------|------------------|------------------|
B|------------------|------------------|------------------|------------------|
G|-8---x-x10---x-x--|------------------|-4-4-4-4-4-4-4-4--|-3-3-3-3-3-3-3-3--|
D|-8---x-x10---x-x--|-8---x-x-5---x-x--|------------------|------------------|
A|-6---x-x-8---x-x--|-8---x-x-5---x-x--|-4-4-4-4-4-4-4-4--|-3-3-3-3-3-3-3-3--|
E|------------------|-6---x-x-3---x-x--|------------------|------------------|

Verse 2
------------------------------------------------------------------------------

The only thing different here is the little alteration right before the second
verse is sung (triplet drum fill) and the backing guitar plays slightly
different chords.

Guitars 1 & 2:

E|------------------|------------------|
B|------------------|------------------|
G|------------------|------------------|
D|------------------|-5--3-------------|
A|-------5-3---5----|-------5-3--------|
E|-3---6------------|-----------6-3----|

Guitar 3:

E|-6-6-x-x-x-x-x-x--|-x-x-x-x-x-x-8-xx-|-x-x-x-x-x-x-x-x--|-x-x-x-x-x-x-x-8--|
B|-8-8-x-x-x-x-x-x--|-x-x-x-x-x-x-7-xx-|-x-x-x-x-x-x-x-x--|-x-x-x-x-x-x-x-7--|
G|-7-7-x-x-x-x-x-x--|-x-x-x-x-x-x-5-xx-|-x-x-x-x-x-x-x-x--|-x-x-x-x-x-x-x-5--|
D|------------------|------------------|------------------|------------------|
A|------------------|------------------|------------------|------------------|
E|------------------|------------------|------------------|------------------|

E|-x-6-x-x-x-x-x-x--|-x-x-x-x-x-x-x-x--|11----11----11----|-8-----8-----8----|
B|-x-8-x-x-x-x-x-x--|-x-x-x-x-x-x-x-x--|-8-----8-----8----|-7-----7-----7----|
G|-x-7-x-x-x-x-x-x--|-x-x-x-x-x-x-x-x--|-8-----8-----8----|-7-----7-----7----|
D|------------------|------------------|------------------|------------------|
A|------------------|------------------|------------------|------------------|
E|------------------|------------------|------------------|------------------|

Everything else remains the same as Verse 1.

Bridge
------------------------------------------------------------------------------

Guitars 1 & 2 (distorted):

E|-6---x-6---x-9-9--|-9-9-9-9-9-9-9-9--|
B|-8---x-8---x-8-8--|-8-8-8-8-8-8-8-8--|
G|-7---x-7---x-6-6--|-6-6-6-6-6-6-6-6--|
D|------------------|------------------| x 3
A|------------------|------------------|
E|------------------|------------------|

E|-8-8-8-8-8-8-8-8--|-8-8-8-8-8-8-8-8--|
B|-7-7-7-7-7-7-7-7--|-7-7-7-7-7-7-7-7--|
G|-7-7-7-7-7-7-7-7--|-7-7-7-7-7-7-7-7--|
D|------------------|------------------|
A|------------------|------------------|
E|------------------|------------------|

And then to the intro...

Final Chorus
------------------------------------------------------------------------------

The last chorus is like the first two, except an additional guitar creeps in.
Its sound becomes more noticeable as the chorus repeats.

Guitar 3 (light):

E|------------------|------------------|------------------|------------------|
B|------------------|------------------|------------------|------------------|
G|12---x-x14---x-x--|-7---x-x-7---x-x--|12---x-x14---x-x--|-7-7-7-7-7-7-7-7--|
D|------------------|------------------|------------------|------------------|
A|10---x-x12---x-x--|-5---x-x-5---x-x--|10---x-x12---x-x--|-5-5-5-5-5-5-5-5--|
E|------------------|------------------|------------------|------------------|

E|------------------|------------------|------------------|------------------|
B|------------------|------------------|------------------|------------------|
G|12---x-x14---x-x--|-7---x-x-7---x-x--|-4-4-4-4-4-4-4-4--|-3-3-3-3-3-3-3-3--|
D|------------------|------------------|------------------|------------------|
A|10---x-x12---x-x--|-5---x-x-5---x-x--|-4-4-4-4-4-4-4-4--|-3-3-3-3-3-3-3-3--|
E|------------------|------------------|------------------|------------------|

E|------------------|------------------|------------------|------------------|
B|------------------|------------------|------------------|------------------|
G|12---x-x14---x-x--|-7---x-x-7---x-x--|12---x-x14---x-x--|1919191919191919--|
D|------------------|------------------|------------------|------------------|
A|10---x-x12---x-x--|-5---x-x-5---x-x--|10---x-x12---x-x--|1717171717171717--|
E|------------------|------------------|------------------|------------------|

E|------------------|------------------|------------------|------------------|
B|------------------|------------------|------------------|------------------|
G|12---x-x14---x-x--|-7---x-x-7---x-x--|1515151515151515--|-3-3-3-3-3-3-3-3--|
D|------------------|------------------|------------------|------------------|
A|10---x-x12---x-x--|-5---x-x-5---x-x--|1313131313131313--|-3-3-3-3-3-3-3-3--|
E|------------------|------------------|------------------|------------------|


*****************************************
* Song   : All the Time			*
* Artist : Rx Bandits			*
* Album  : Progress			*
* Year   : 2001				*
*****************************************
    Tabbed by: Bill Streckfus

Tempo = 192 bpm

Intro / Verse:
------------------------------------------------------------------------------

Guitar 1:

E|---0--------------|------------------|---0--------------|------------------|
B|-----0------------|------------------|-----3------------|------------------|
G|-------5----------|------------------|-------4----------|------------------|
D|-7----------------|------------------|-5----------------|------------------|
A|------------------|------------------|------------------|------------------|
E|------------------|------------------|------------------|------------------|

E|---0--------------|-7p0---8p0--------|-0-----3----------|------------------|
B|-----0------------|------------------|---3--------------|------------------|
G|-------5----------|-----5-----5------|-----4------------|------------------|
D|-7----------------|-------------7/5--|------------------|------------------|
A|------------------|------------------|------------------|------------------|
E|------------------|------------------|------------------|------------------|


E|---0--------------|------------------|---0--------------|------------------|
B|-----0------------|------------------|-----3------------|------------------|
G|-------5----------|------------------|-------4----------|------------------|
D|-7----------------|------------------|-5----------------|------------------|
A|------------------|------------------|------------------|------------------|
E|------------------|------------------|------------------|------------------|

E|---0--------------|------------------|-3----------------|------------------|
B|-----0------------|------------------|-3----------------|------------------|
G|-------5----------|------------------|-4----------------|------------------|
D|-7----------------|------------------|-0----------------|------------------|
A|------------------|------------------|------------------|------------------|
E|------------------|------------------|------------------|------------------|

E|---0--------------|------------------|---0--------------|------------------|
B|-----0------------|------------------|-----3------------|------------------|
G|-------5----------|------------------|-------4----------|------------------|
D|-7----------------|------------------|-5----------------|------------------|
A|------------------|------------------|------------------|------------------|
E|------------------|------------------|------------------|------------------|

E|---0--------------|-7p0---8p0--------|-0-----3----------|--------------xxx-|
B|-----0------------|------------------|---3--------------|--------------xxx-|
G|-------5----------|-----5-----5------|-----4------------|--------------xxx-|
D|-7----------------|-------------7/5--|------------------|--------------xxx-|
A|------------------|------------------|------------------|--------------xxx-|
E|------------------|------------------|------------------|--------------xxx-|

E|-----5-------5----|-----5-------5----|-----3-------3----|-----3-------3----|
B|-----5-------5----|-----5-------5----|-----3-------3----|-----3-------3----|
G|-----5-------5----|-----5-------5----|-----4-------4----|-----4-------4----|
D|------------------|------------------|------------------|------------------|
A|------------------|------------------|------------------|------------------|
E|------------------|------------------|------------------|------------------|

E|-----5-------5----|-----5-------5----|
B|-----5-------5----|-----5-------5----|
G|-----5-------5----|-----5-------5----|
D|------------------|------------------|
A|------------------|------------------|
E|------------------|------------------|

Guitars 1 & 2 (distorted):

E|------------------|------------------|
B|------------------|------------------|
G|------------------|------------------|
D|-----5------------|------------------|
A|-----5------------|------------------|
E|-----3------------|------------------|

Pre-Chorus
------------------------------------------------------------------------------

Guitars 1 & 2:

E|------------------|------------------|------------------|------------------|
B|------------------|------------------|------------------|------------------|
G|---------------5--|-5---x-7-7---x----|------------------|-----5-------5----|
D|-7---x-5-5---x-5--|-5---x-7-7---x-7--|-7---x-5-5---5-x--|-----5-------5----| x 3
A|-7---x-5-5---x-3--|-3---x-5-5---x-7--|-7---x-5-5---5-x--|-3-3-3---2-2-2----|
E|-5---x-3-3---x----|---------------5--|-5---x-3-3---3-x--|------------------|
							    p.m.    p.m.

E|------------------|------------------|------------------|------------------|
B|------------------|------------------|------------------|------------------|
G|---------------5--|-5---x-7-7---x----|------------------|-----5-5-----5-5--|
D|-7---x-5-5---x-5--|-5---x-7-7---x-7--|-7---x-5-5---5-x--|-----5-5-----5-5--|
A|-7---x-5-5---x-3--|-3---x-5-5---x-7--|-7---x-5-5---5-x--|-3-3-3-3-3-3-3-3--|
E|-5---x-3-3---x----|---------------5--|-5---x-3-3---3-x--|------------------|

							    p.m.    p.m.
E|------------------|
B|------------------|
G|-----5-5-----5-5--|
D|-----5-5-----5-5--|
A|-2-2-2-2-2-2-2-2--|
E|------------------|
   p.m.    p.m.

Verse 2
------------------------------------------------------------------------------

E|------------------|------------------|
B|------------------|------------------|
G|------------------|------------------|
D|-----2-2-----5-5--|------------------| x 7
A|-0-0-----3-3------|------------------|
E|------------------|------------------|
   p.m.p.m.p.m.

E|------------------|------------------|
B|------------------|------------------|
G|------------------|------------------|
D|-----2-2-------5--|---5---5----------|
A|-0-0-----3-3-x----|------------------|
E|------------------|------------------|

E|-5---x-5-x-5-x-5--|
B|-5---x-5-x-5-x-5--|
G|-5---x-5-x-5-x-5--|
D|------------------|
A|------------------|
E|------------------|

E|-x-5-x-5-x-5-x-5--|
B|-x-5-x-5-x-5-x-5--|
G|-x-5-x-5-x-5-x-5--| x 6
D|------------------|
A|------------------|
E|------------------|

E|-x-5---5-x-5-5-5--|
B|-x-5---5-x-5-5-5--|
G|-x-5---5-x-5-5-5--|
D|------------------|
A|------------------|
E|------------------|


Next, is the Pre-chorus again, followed by the chorus.

Chorus
------------------------------------------------------------------------------

Guitar 1 (distorted):

E|------------------|------------------|------------------|------------------|
B|------------------|------------------|------------------|------------------|
G|------------------|------------------|-5---5-5-5-5-5-5--|-5---5-5-5-5-5-5--|
D|-7---7-7-7-7-7-7--|-7---7-7-7-7-7-7--|-5---5-5-5-5-5-5--|-5---5-5-5-5-5-5--| x 3
A|-7---7-7-7-7-7-7--|-7---7-7-7-7-7-7--|-3---3-3-3-3-3-3--|-2---2-2-2-2-2-2--|
E|-5---5-5-5-5-5-5--|-5---5-5-5-5-5-5--|------------------|------------------|

E|------------------|------------------|
B|------------------|------------------|
G|------------------|------------------|
D|-7----------------|------------------|
A|-7----------------|------------------|
E|-5----------------|------------------|
   Let ring and slight whammy near the end.

Guitar 2 (distorted):

E|------------------|------------------|------------------|------------------|
B|------------------|------------------|------------------|------------------|
G|------------------|------------------|-5---5-5-5-5-5-5--|-5---5-5-5-5-5-5--|
D|-----2-2-----5-5--|-----2-2-----5-5--|-5---5-5-5-5-5-5--|-5---5-5-5-5-5-5--| x 3
A|-0-0-----3-3------|-0-0-----3-3------|-3---3-3-3-3-3-3--|-2---2-2-2-2-2-2--|
E|------------------|------------------|------------------|------------------|

E|------------------|------------------|
B|------------------|------------------|
G|------------------|------------------|
D|-7----------------|------------------|
A|-7----------------|------------------|
E|-5----------------|------------------|

Guitar 3 (distorted):

E|------------------|------------------|------------------|------------------|
B|------------------|------------------|------------------|------------------|
G|------------------|------------------|------------------|------------------|
D|-----2-2-----5-5--|-----2-2-----5-5--|------------------|------------------|
A|-0-0-----3-3------|-0-0-----3-3------|------------------|------------------|
E|------------------|------------------|------------------|------------------|

E|------------------|------------------|------------------|------------------|
B|------------------|------------------|------------------|------------------|
G|-----9-9----1212--|-----9-9----1212--|------------------|------------------|
D|-7-7----1010------|-7-7----1010------|------------------|------------------|
A|------------------|------------------|------------------|------------------|
E|------------------|------------------|------------------|------------------|

E|------------------|------------------|------------------|------------------|
B|------------------|------------------|------------------|------------------|
G|-----9-9----1212--|-----9-9----1212--|------------------|------------------|
D|-7-7----1010------|-7-7----1010------|------------------|------------------|
A|------------------|------------------|------------------|------------------|
E|------------------|------------------|------------------|------------------|

Bridge:
------------------------------------------------------------------------------

Guitar 1:

E|---0---7-----8----|---7p0-8p0--------|-7-------5---3----|-----3---5--10----|
B|-----0---0-----0--|-----------0------|---0---0---0---0--|---0---0---0---0--|
G|----------5-------|-5-----------5----|-----0------------|-0----------------|
D|-7----------------|---------------7--|------------------|------------------|
A|------------------|------------------|------------------|------------------|
E|------------------|------------------|------------------|------------------|


E|---0---7-----8----|---7p0-8p0--------|-7------10--------|-7------10--10----|
B|-----0---0-----0--|-----------0------|---0---0---0---0--|---0---0---0---0--|
G|----------5-------|-5-----------5----|-----0-------0----|-----0------------|
D|-7----------------|---------------7--|------------------|------------------|
A|------------------|------------------|------------------|------------------|
E|------------------|------------------|------------------|------------------|

E|---0---7-----8----|---7p0-8p0--------|-7-------5---3----|-----3---5--10----|
B|-----0---0-----0--|-----------0------|---0---0---0---0--|---0---0---0---0--|
G|----------5-------|-5-----------5----|-----0------------|-0----------------|
D|-7----------------|---------------7--|------------------|------------------|
A|------------------|------------------|------------------|------------------|
E|------------------|------------------|------------------|------------------|

Guitars 1 & 2 (distorted):

E|------------------|------------------|------------------|------------------|
B|------------------|------------------|------------------|------------------|
G|------------------|------------------|------------------|------------<2>---|
D|-7-7-7-7-7-7-7-7--|-7-7-7-7-7-7-7-7--|-2-------2--------|------------<2>---|
A|-7-7-7-7-7-7-7-7--|-7-7-7-7-7-7-7-7--|-2-------2--------|------------------|
E|-5-5-5-5-5-5-5-5--|-5-5-5-5-5-5-5-5--|-0-------0--------|------------------|
   p.m.p.m.p.m.p.m.p.m.p.m.p.m.p.m.p.m.                         Pinch harmonic

  Crescendo and gradually release palm mute.

Outro:
------------------------------------------------------------------------------

Guitars 1 & 2:

E|------------------|------------------|
B|------------------|------------------|
G|------------------|-5-5-5-5-7-7-7-7--|
D|-7-7-7-7-5-5-5-5--|-5-5-5-5-7-7-7-7--| x 4
A|-7-7-7-7-5-5-5-5--|-3-3-3-3-5-5-5-5--|
E|-5-5-5-5-3-3-3-3--|------------------|

E|------------------|
B|------------------|
G|------------------|
D|-----2-2-----5-5--|
A|-0-0-----3-3------|
E|------------------|
   p.m.p.m.p.m.

Segway:
------------------------------------------------------------------------------

Guitar 1:

E|------12----------|------------------|------12----------|------------------|
B|15----------13----|15h1713------15---|15----------13--13|15h1713------15---|
G|------------------|---------14-------|--14--------------|---------14-------|
D|------------------|------------------|------------------|------------------|
A|------------------|------------------|------------------|------------------|
E|------------------|------------------|------------------|------------------|

E|13--1312----------|------------------|13--1312----------|------------------|
B|------------13----|15h1713------15---|------------13--13|15h1713------15---|
G|--14--------------|---------14-----12|--14--------------|---------14-----12|
D|------------------|------------------|------------------|------------------|
A|------------------|------------------|------------------|------------------|
E|------------------|------------------|------------------|------------------|

E|------------------|------------------|------------------|------------------|
B|------------------|------------------|------------------|------------------|
G|------14----10----|------------------|------------------|-----14-------14--|
D|12----------------|------14----------|12---1512--x121512|12h15--15--x15--15|
A|----------------12|12----------------|------------------|------------------|
E|------------------|------------------|------------------|------------------|

E|------------------|------------------|
B|------------------|------------------|
G|--------------14--|-----14-------14--|
D|------------15--15|12h15--15--x15----|
A|------------------|------------------|
E|------------------|------------------|


*****************************************
* Song   : In All Rwanda's Glory	*
* Artist : Rx Bandits			*
* Album  : Progress			*
* Year   : 2001				*
*****************************************
    Tabbed by: Bill Streckfus

There's not to much guitar to this song, as the organ does most of the
legwork.

Tempo = variable

Intro:
------------------------------------------------------------------------------

Guitar 1:

E|------------------|------------------|
B|------------------|------------------|
G|------------------|------------------|
D|------------------|---------3p2------| x 8
A|-3h5-5-5-5---5-5--|-3h5-5-5-----3-0--|
E|------------------|------------------|
  p.m.p.m.p.m.p.m.p.m.p.m.p.m.p.m.p.m.

Outro:
------------------------------------------------------------------------------

Guitar 1:

E|12----------------|------------------|------------------|------------------|
B|13----------------|------------------|------------------|------------------|
G|14141414-----1414-|----1414----1414--|------------------|---1414----14-----|
D|------------------|------------------|------------------|------------------|
A|------------------|------------------|------------------|------------------|
E|------------------|------------------|------------------|------------------|
  p.m.p.m.     p.m.      p.m.    p.m.                         p.m.

E|------------------|------------------|------------------|------------------|
B|------------------|------------------|------------------|------------------|
G|---x1414----1414--|-x14---x14-x14-x--|-x1414-x14-x1414--|-x14-x-x14141414--|
D|------------------|------------------|------------------|------------------|
A|------------------|------------------|------------------|------------------|
E|------------------|------------------|------------------|------------------|

E|------------------|------------------|------10--10--10--|--10--10--10------|
B|--------13--------|------12--131313--|------12--12--12--|--12--13--1313----|
G|1414141414141414--|14141414----------|1414141414141212--|121214141414------|
D|------------------|------------------|------------------|------------------|
A|------------------|------------------|------------------|------------------|
E|------------------|------------------|------------------|------------------|
  p.m.p.m.  p.m.p.m.p.m.p.m.p.m.p.m.p.m.p.m.p.m.

E|------------------|----10-x101010-x--|-x1010-x10101010--|1010101010101010--|
B|13------13--------|----13-x131313-x--|-x1313-x13131313--|1313131313131313--|
G|14141414--141414--|141414-x141414-x--|-x1414-x14141414--|1414141414141414--|
D|------------------|------------------|------------------|------------------|
A|------------------|------------------|------------------|------------------|
E|------------------|------------------|------------------|------------------|
    p.m.p.m.p.m.p.m. p.m.p.m.p.m.p.m.p.m.p.m.p.m.p.m.

A little break and then...

E|1212-x-x-x-x-x-x--|1212---x1212-x-x--|
B|1313-x-x-x-x-x-x--|1212---x1212-x-x--|
G|1414-x-x-x-x-x-x--|1414---x1414-x-x--|
D|------------------|------------------| x 3
A|------------------|------------------|
E|------------------|------------------|

E|1212-x-x-x-x-x-x--|1515151515151515--|
B|1313-x-x-x-x-x-x--|1313131313131313--|
G|1414-x-x-x-x-x-x--|1414141414141414--|
D|------------------|------------------|
A|------------------|------------------|
E|------------------|------------------|

E|1212-x-x-x-x-x-x--|1212---x1212-x-x--|1212-x-x-x-x-x--xx|1212--xx1212-x--xx|
B|1313-x-x-x-x-x-x--|1212---x1212-x-x--|1313-x-x-x-x-x--xx|1212--xx1212-x--xx|
G|1414-x-x-x-x-x-x--|1414---x1414-x-x--|1414-x-x-x-x-x--xx|1414--xx1414-x--xx|
D|------------------|------------------|------------------|------------------|
A|------------------|------------------|------------------|------------------|
E|------------------|------------------|------------------|------------------|

E|1212-x-x-x-x-x-x--|1212---x1212-x-x--|1212-x-x-x-x-x-x--|1212--------------|
B|1313-x-x-x-x-x-x--|1212---x1212-x-x--|1313-x-x-x-x-x-x--|1212--121212121212|
G|1414-x-x-x-x-x-x--|1414---x1414-x-x--|1414-x-x-x-x-x-x--|1414--141414141414|
D|------------------|------------------|------------------|------------------|
A|------------------|------------------|------------------|------------------|
E|------------------|------------------|------------------|------------------|
							      Sixteenth notes
                                                                   (x2)

E|------------------|
B|------------------|
G|14----------------|
D|------------------|
A|------------------|
E|------------------|


*****************************************
* Song   : Babylon			*
* Artist : Rx Bandits			*
* Album  : Progress			*
* Year   : 2001				*
*****************************************
    Tabbed by: Bill Streckfus

Tempo = 170 bpm

Intro:
------------------------------------------------------------------------------

Guitars 1 & 2 (Delay):

Shown below are the notes which are actually being played. These are of course
doubled with the delay effect.

E|-x-x-----x-x------|
B|-x-x-----x-x------|
G|-x-x-----x-x------|
D|------------------|
A|------------------|
E|------------------|

E|-4-------5p4------|-9------11h1211p12|-4-------5p4------|-9-9-----7--------|
B|-5-------5--------|-9-------9--------|-5-------5--------|-9-9-----7--------|
G|-x-------4---4----|-9----------------|-x-------4---4----|-9-------8--------|
D|------------------|------------------|------------------|-9----------------|
A|------------------|------------------|------------------|------------------|
E|------------------|------------------|------------------|------------------|
							 Arpeggiate

E|-4-------5p4------|-9------11h1211p12|-4-------5p4-4----|-9-------7--------|
B|-5-------5--------|-9-------9--------|-5-----------5----|-9-------7--------|
G|-x-------4---4----|-9----------------|-x-------------4--|-9-------8--------|
D|------------------|------------------|------------------|-9----------------|
A|------------------|------------------|------------------|------------------|
E|------------------|------------------|------------------|------------------|

E|-4-------5p4-4----|-9------11h1211p12|-x-------5p4------|-9-9-----7--------|
B|-5-----------5----|-9-------9--------|-x-------5--------|-9-9-----7--------|
G|-x-------------4--|-9----------------|-x-------4---4----|-9-------8--------|
D|------------------|------------------|------------------|-9-------9--------|
A|------------------|------------------|------------------|------------------|
E|------------------|------------------|------------------|------------------|
							          Arpeggiate

E|-4-------5p4-4----|-9------11h12-----|-x-----5p4--------|---------7--------|
B|-5-----------5----|-9-------9---x-x--|-x---------5---5--|-9-9-----7--------|
G|-x-------------4--|-9----------------|-x-----------4----|-9-------8--------|
D|------------------|------------------|------------------|-9-------9--------|
A|------------------|------------------|------------------|------------------|
E|------------------|------------------|------------------|------------------|

E|-4-------5p4-4----|-9-------9--------|-4-----5p4--------|---9-9-9----------|
B|-5-----------5----|-9-------9--------|-5---------5---5--|---9-9-9----------|
G|-x-------------4--|-9----------------|-x-----------4----|---9-9-9----------|
D|------------------|------------------|------------------|------------------|
A|------------------|------------------|------------------|------------------|
E|------------------|------------------|------------------|------------------|

Verse
------------------------------------------------------------------------------

Guitars 1 & 2 (Delay):

E|-----4-------9-9--|-----9------------|---x-4-------9-9--|-----9------1112--|
B|-----5-------9-9--|-----9------------|---x-5-------9-9--|-----9-------9----|
G|-----4-------9----|-----9------------|---x-x-------9----|-----9------------|
D|------------------|-----9------------|------------------|------------------|
A|------------------|------------------|------------------|------------------|
E|------------------|------------------|------------------|------------------|
               p.m.     p.m.                         p.m.

E|-----4------------|---x-9------------|-----4-------9----|-----9------1112--|
B|-----5-------x-9--|---x-9------------|-----5---9p109----|-----9-------9----|
G|-----4-------x-9--|---x-9------------|-----4-------9----|-----9------------|
D|-------------x-9--|-----9------------|------------------|------------------|
A|------------------|------------------|------------------|------------------|
E|------------------|------------------|------------------|------------------|


Guitar 1:

E|------------------|-------------9----|-----4-------5p4--|-------------1112-|
B|------------------|-----------9-9----|-----5-------5----|------------------|
G|------------------|-------------9----|-----x-------x----|------------------|
D|------------------|-------------9----|------------------|------------------|
A|------------------|------------------|------------------|------------------|
E|------------------|------------------|------------------|------------------|

Guitar 2:

E|------------------|-------------9----|-----4-------5p4--|------------1112----|
B|------------------|-------------9----|-----5-------5----|--------------------|
G|-x-x-x-x-x-x-x-x--|-x-x-x-x-x-x-9----|-----x-------x----|--------------------|
D|------------------|-------------9----|------------------|--------------------|
A|------------------|------------------|------------------|--------------------|
E|------------------|------------------|------------------|--------------------|
   -----------Triplets---------------------------------------------------------|


Guitars 1 & 2 (Delay):

E|---x-4-------5p4--|-----9-------9----|-x-x-4---x-x-4----|-----9------------|
B|---x-5-------5----|-----9-------9----|-x-x-5---x-x-5----|-----9------------|
G|---x-4-------4----|-----9-------9----|-x-x-4---x-x-4----|-----9------------|
D|------------------|------------------|------------------|-----9------------|
A|------------------|------------------|------------------|------------------|
E|------------------|------------------|------------------|------------------|

Chorus
------------------------------------------------------------------------------

Guitars 1 & 2 (Delay):

E|-x---7---x---7----|-x---7---x---7----|-x---9---x---9----|-x---9---x--11h12-|
B|-x---7---x---7----|-x---7---x---7----|-x---9---x---9----|-x---9---x---9----|
G|-x---8---x---8----|-x---8---x---8----|-x---9---x---9----|-x---9---x---9----|
D|------------------|------------------|------------------|------------------| x 3
A|------------------|------------------|------------------|------------------|
E|------------------|------------------|------------------|------------------|

E|------------------|------------------|------------------|-----9-----x-x-x--|
B|------------------|------------------|------------------|-----9-----x-x-x--|
G|------------------|------------------|------------------|-----9-----x-x-x--|
D|------------------|------------------|------------------|------------------|
A|------------------|------------------|------------------|------------------|
E|------------------|------------------|------------------|------------------|

Verse 2
------------------------------------------------------------------------------

Guitars 1 & 2 (Delay):

E|-4-------5p4------|-9---x-x11h12-x-x-|-4-------5p4------|-x-9-x-x-7----x-x-|
B|-5-------5--------|-----x-x-9----x-x-|-5-------5--------|-x-9-x-x-7----x-x-|
G|-x-------4---4----|-----x-x------x-x-|-x-------4---4----|-x---x-x-8----x-x-|
D|------------------|------------------|------------------|------------------|
A|------------------|------------------|------------------|------------------|
E|------------------|------------------|------------------|------------------|

E|-4---x-x-5p4------|-x-9---911h12-----|-4---x-x-5p4-4-x--|-x-x-9---7--------|
B|-5---x-x-5--------|-x-------9--------|-5---x-x-----5-x--|-x-x-9---7--------|
G|-x---x-x-4---4----|-x----------------|-x---x-x-------x--|-x-x-9---8--------|
D|------------------|------------------|------------------|------------------|
A|------------------|------------------|------------------|------------------|
E|------------------|------------------|------------------|------------------|

E|-x---7---x---7----|-x---9---x--11h12-|-x---7---x---7----|-x---9---x--11h12-|
B|-x---9---x---9----|-x---9---x---9----|-x---9---x---9----|-x---9---x---9----|
G|-x---9---x---9----|-x---9---x---9----|-x---9---x---9----|-x---9---x---9----|
D|------------------|------------------|------------------|------------------|
A|------------------|------------------|------------------|------------------|
E|------------------|------------------|------------------|------------------|

E|-x---7---x---7----|-x---9---x--11h12-|-x---7---x---7----|-x-x-9---x-x-9----|
B|-x---9---x---9----|-x---9---x---9----|-x---9---x---9----|-x-x-9---x-x-9----|
G|-x---9---x---9----|-x---9---x---9----|-x---9---x---9----|-x-x-9---x-x-9----|
D|------------------|------------------|------------------|------------------|
A|------------------|------------------|------------------|------------------|
E|------------------|------------------|------------------|------------------|

E|-x---7---x---7----|-x---9-------9----|-x---7---x---7----|-x---9---x--11h12-|
B|-x---9---x---9----|-x---9-------9----|-x---9---x---9----|-x---9---x---9----|
G|-x---9---x---9----|-x---9-------9----|-x---9---x---9----|-x---9---x---9----|
D|------------------|-------------9----|------------------|------------------|
A|------------------|------------------|------------------|------------------|
E|------------------|------------------|------------------|------------------|
      p.m.    p.m.       p.m. Arpeggiate

E|-x---7---x---7----|-x---9---x-x11h12-|-x---7---x---7----|-9---x-9-----x-x--|
B|-x---9---x---9----|-x---9---x-x-9----|-x---9---x---9----|-9---x-9-----x-x--|
G|-x---9---x---9----|-x---9---x-x-9----|-x---9---x---9----|-9---x-9-----x-x--|
D|------------------|------------------|------------------|------------------|
A|------------------|------------------|------------------|------------------|
E|------------------|------------------|------------------|------------------|

Bridge
------------------------------------------------------------------------------

Guitar 1 (tremolo/delay):

E|---4---5p4--------|-------9--11h12---|---4---5p4--------|-------9---2------|
B|-----------5------|---------------9--|-----------5------|-----x-------4----|
G|-4---4-------4----|---x-9---9--------|-4---4-------4----|---x-----------4--|
D|------------------|------------------|------------------|------------------|
A|------------------|------------------|------------------|------------------|
E|------------------|------------------|------------------|------------------|

E|---4---------9----|------------------|---4---5p4--------|------------------|
B|-------5-----9----|------------------|-----------5------|------------------|
G|-4-----------9----|------------------|-4---4-------4----|------------------|
D|------------------|------------------|------------------|------------------|
A|------------------|------------------|------------------|------------------|
E|------------------|------------------|------------------|------------------|

E|---4---5p4--------|-----9-------7----|---4---5---4h5p4--|-------4----------|
B|-----------5------|---9---9---7---7--|------------------|-----------7---4--|
G|-4---4-------4----|-9-------8--------|-4---4------------|---x-4------------|
D|------------------|------------------|------------------|------------------|
A|------------------|------------------|------------------|------------------|
E|------------------|------------------|------------------|------------------|
		      p.m.  p.m.   p.m.

E|---4---5p4--------|-9-9-x-x-7-7-x-x--|-x-x-x-x-x-x-x-x--|-9------------------|
B|-----------5------|-9-9-x-x-7-7-x-x--|-x-x-x-x-x-x-x-x--|-9------------------|
G|-4---4-------4----|-9-9-x-x-8-8-x-x--|-x-x-x-x-x-x-x-x--|-9------------------|
D|------------------|------------------|------------------|--------------------|
A|------------------|------------------|------------------|--------------------|
E|------------------|------------------|------------------|--------------------|
                     -----Triplets---------------------------------------------|


*****************************************
* Song   : Status			*
* Artist : Rx Bandits			*
* Album  : Progress			*
* Year   : 2001				*
*****************************************
    Tabbed by: Bill Streckfus

Tempo = 192 bpm

Verse :
------------------------------------------------------------------------------

Guitar 1 :

E|-------------x-5--|-----x-------5----|-----5------------|------------------|
B|-------------x-5--|-----x-------5----|-----5-------x-5/-|-7-----------7----|
G|-------------x-6--|-----x-------6----|-----6-------x-6/-|-7-----------7----|
D|-------------x-7--|-----x------------|-------------x-7/-|-7-----------7----|
A|------------------|------------------|------------------|------------------|
E|------------------|------------------|------------------|------------------|

E|-------------x-5--|-----5-------5----|-----5------------|------------------|
B|-7-----------x-5--|-----5-------5----|-----5-------x-9--|-----9-------9----|
G|-7-----------x-6--|-----6-------6----|-----6-------x-9--|-----9-------9----|
D|-7----------------|------------------|-------------x-9--|-----9-------9----|
A|------------------|------------------|------------------|------------------|
E|------------------|------------------|------------------|------------------|

E|------------------|
B|-9-----------9-x--|
G|-9-----------9-x--|
D|-9-----------9-x--|
A|------------------|
E|------------------|

E|-----9-----9------|---------9--------|------------------|-------------x-9--|
B|----10----10------|-9---x--10---x-9--|-----x-------9----|-----9-------x10--|
G|-----9-----9------|-9---x---9---x-9--|-----x-------9----|-----9-------x11--|
D|----11----11------|-9---x--11---x-9--|-----x-------9----|-----9------------|
A|-9----------------|------------------|------------------|------------------|
E|------------------|------------------|------------------|------------------|

E|-----x------------|------------------|------------------|------------------|
B|-----x---x10---x--|-9---x-x10---x-9--|-----x-------x----|-----x-------x-7--|
G|-----x---x-9---x--|-9---x-x-9---x-9--|-----x-------x----|-----x-------x-7--|
D|------------------|-------------x-9--|-----x-------x----|-----x-------x-7--|
A|------------------|------------------|------------------|------------------|
E|------------------|------------------|------------------|------------------|

Pre-Chorus :
------------------------------------------------------------------------------

Guitar 1 :

E|------------------|------------------|------------------|------------------|
B|-----x-------x-7/-|-9---x-------x-x--|-x---5---x---5----|-x---5---x---x-7/-|
G|-----x-------x-7/-|-9---x-------x-x--|-x---6---x---6----|-x---6---x---x-6/-|
D|-----x-------x-7/-|-9---x-------x-x--|-x---7---x---7----|-x---7---x---x-5/-|
A|------------------|------------------|------------------|------------------|
E|------------------|------------------|------------------|------------------|

E|------------------|------------------|------------------|------------------|
B|-7---x-------x-7/-|-9---x-------x-x--|-x---5---x---5----|-x---5---x---x-7/-|
G|-7---x-------x-7/-|-9---x-------x-x--|-x---6---x---6----|-x---6---x---x-6/-|
D|-7---x-------x-7/-|-9---x-------x-x--|-x---7---x---7----|-x---7---x---x-5/-|
A|------------------|------------------|------------------|------------------|
E|------------------|------------------|------------------|------------------|

E|------------------|------------------|------------------|------------------|
B|-7---x-------x-7/-|-9---x-------x-x--|10-------9--------|-7----------------|
G|-7---x-------x-7/-|-9---x-------x-x--|11-------9--------|-7----------------|
D|-7---x-------x-7/-|-9---x-------x-x--|11-------9--------|-7----------------|
A|------------------|------------------|-9-------7--------|-5----------------|
E|------------------|------------------|------------------|------------------|

E|-------7----------|--------7---------|
B|---------7--------|--------9---------|
G|-8----------------|--------7---------|
D|-9----------------|--------9---------|
A|-9----------------|--------7---------|
E|-7----------------|-0----------------|

Guitars 1 & 2 (distortion):

E|------------------|------------------|------------------|------------------|
B|------------------|------------------|------------------|------------------|
G|------------------|------------------|------------------|------------------|
D|-7---7------------|------------------|-4---4------------|------------------|
A|-7---7------------|------------------|-4---4------------|------------------|
E|-5---5------------|------------------|-2---2------------|------------------|

E|------------------|------------------|------------------|------------------|
B|------------------|------------------|------------------|------------------|
G|-7---7---7---7----|-7---7---7---7----|-9---9---9---9----|-9---9---9---9----|
D|-7---7---7---7----|-7---7---7---7----|-9---9---9---9----|-9---9---9---9----|
A|-5---5---5---5----|-5---5---5---5----|-7---7---7---7----|-7---7---7---7----|
E|------------------|------------------|------------------|------------------|

Guitar 3 (distortion):

E|------------------|------------------|------------------|------------------|
B|------------------|------------------|------------------|------------------|
G|------------------|------------------|------------------|------------------|
D|------------------|------------------|------------------|------------------|
A|------------------|------------------|------------------|------------------|
E|------------------|------------------|------------------|------------------|

E|------------------|------------------|------------------|------------------|
B|------------------|------------------|------------------|------------------|
G|11--11--11--11----|11--11--11--11----|13--13--13--13----|13--13--13--13----|
D|------------------|------------------|------------------|------------------|
A|-9---9---9---9----|-9---9---9---9----|11--11--11--11----|11--11--11--11----|
E|------------------|------------------|------------------|------------------|

Chorus:
------------------------------------------------------------------------------

Guitars 1 & 2 (distortion):

E|------------------|------------------|------------------|------------------|
B|------------------|------------------|------------------|------------------|
G|------------------|------------------|-9---9---x-x-x-x--|-9---9---x-x-x-x--|
D|-7---7---x-x-x-x--|-7---7---x-x-x-x--|-9---9---x-x-x-x--|-9---9---x-x-x-x--|
A|-7---7---x-x-x-x--|-7---7---x-x-x-x--|-7---7---x-x-x-x--|-7---7---x-x-x-x--|
E|-5---5---x-x-x-x--|-5---5---x-x-x-x--|------------------|------------------|

E|------------------|------------------|------------------|------------------|
B|------------------|------------------|------------------|------------------|
G|11--11---x-x-x-x--|11--11---x-x-x-x--|-7---7---7---7----|-9---9---9---9----|
D|11--11---x-x-x-x--|11--11---x-x-x-x--|-7---7---7---7----|-9---9---9---9----|
A|-9---9---x-x-x-x--|-9---9---x-x-x-x--|-5---5---5---5----|-7---7---7---7----|
E|------------------|------------------|------------------|------------------|

E|------------------|------------------|------------------|------------------|
B|------------------|------------------|------------------|------------------|
G|------------------|------------------|------------------|------------------|
D|-7---7---x-x-x-x--|-7---7---7---7----|-4---4---x-x-x-x--|-4---4---x-x-x-x--|
A|-7---7---x-x-x-x--|-7---7---7---7----|-4---4---x-x-x-x--|-4---4---x-x-x-x--|
E|-5---5---x-x-x-x--|-5---5---4---4----|-2---2---x-x-x-x--|-2---2---x-x-x-x--|

E|------------------|------------------|------------------|------------------|
B|------------------|------------------|------------------|------------------|
G|-7---7---7---7----|-7---7---7---7----|-9---9---9---9----|-9---9---9---9----|
D|-7---7---7---7----|-7---7---7---7----|-9---9---9---9----|-9---9---9---9----|
A|-5---5---5---5----|-5---5---5---5----|-7---7---7---7----|-7---7---7---7----|
E|------------------|------------------|------------------|------------------|

Guitar 3 (distortion):

E|------------------|------------------|------------------|------------------|
B|------------------|------------------|------------------|------------------|
G|14--14------------|14--14------------|13--13------------|13--13------------|
D|------------------|------------------|------------------|------------------|
A|12--12------------|12--12------------|11--11------------|11--11------------|
E|------------------|------------------|------------------|------------------|

E|------------------|------------------|------------------|------------------|
B|------------------|------------------|------------------|------------------|
G|14--14------------|14--14------------|11--11--11--11----|13--13--13--13----|
D|------------------|------------------|------------------|------------------|
A|12--12------------|12--12------------|-9---9---9---9----|11--11--11--11----|
E|------------------|------------------|------------------|------------------|

E|------------------|------------------|------------------|------------------|
B|------------------|------------------|------------------|------------------|
G|14--14------------|14--14--13--13----|14--14------------|14--14------------|
D|------------------|------------------|------------------|------------------|
A|12--12------------|12--12--11--11----|12--12------------|12--12------------|
E|------------------|------------------|------------------|------------------|

E|------------------|------------------|------------------|------------------|
B|------------------|------------------|------------------|------------------|
G|11--11--11--11----|11--11--11--11----|13--13--13--13----|13--13--13--13----|
D|------------------|------------------|------------------|------------------|
A|-9---9---9---9----|-9---9---9---9----|11--11--11--11----|11--11--11--11----|
E|------------------|------------------|------------------|------------------|

Bridge:
------------------------------------------------------------------------------

Guitar 1:

E|------------------|------------------|------------------|------------------|
B|------------------|------------------|------------------|------------------|
G|--------11-----9--|------------------|--------11-----9--|------------------|
D|----------11------|------11----------|----------11------|------11----------|
A|-9---9------12----|--------1211--11--|-9---9------12----|--------1211--11--|
E|------------------|------------------|------------------|------------------|
   p.m.p.m.p.m.p.m.p.m.p.m.p.m.p.m.p.m.  p.m.p.m.p.m.p.m.p.m.p.m.p.m.p.m.p.m.

E|------------------|------------------|------------------|------------------|
B|------------------|------------------|------------------|------------------|
G|--------11-----9--|------------------|--------11-----9--|------------------|
D|----------11------|------11----------|----------11------|------------------|
A|-9---9------12----|--------1211--11--|-9---9------12----|------------------|
E|------------------|------------------|------------------|------------------|
   p.m.p.m.p.m.p.m.p.m.p.m.p.m.p.m.p.m.  p.m.p.m.p.m.

Guitar 1 (distorted):

E|------------------|------------------|------------------|------------------|
B|------------------|------------------|------------------|------------------|
G|---------------9--|---9-9---9---9-9--|---------------9--|---9-9---9---9-9--|
D|-4---4---x-x-x-9--|---9-9---9---9-9--|-4---4---x-x-x-9--|---9-9---9---9-9--|
A|-4---4---x-x-x-7--|---7-7---7---7-7--|-4---4---x-x-x-7--|---7-7---7---7-7--|
E|-2---2---x-x-x----|------------------|-2---2---x-x-x----|------------------|

E|------------------|------------------|------------------|------------------|
B|------------------|------------------|------------------|------------------|
G|---------------9--|---9-9---9---9-9--|-7---7---7---7----|-9---9---9---9----|
D|-4---4---x-x-x-9--|---9-9---9---9-9--|-7---7---7---7----|-9---9---9---9----|
A|-4---4---x-x-x-7--|---7-7---7---7-7--|-5---5---5---5----|-7---7---7---7----|
E|-2---2---x-x-x----|------------------|------------------|------------------|

E|------------------|------------------|------------------|------------------|
B|------------------|------------------|------------------|------------------|
G|---------------9--|---9-9---9---9-9--|---------------9--|---9-9---9---9-9--|
D|-4---4---x-x-x-9--|---9-9---9---9-9--|-4---4---x-x-x-9--|---9-9---9---9-9--|
A|-4---4---x-x-x-7--|---7-7---7---7-7--|-4---4---x-x-x-7--|---7-7---7---7-7--|
E|-2---2---x-x-x----|------------------|-2---2---x-x-x----|------------------|

E|------------------|------------------|
B|------------------|------------------|
G|---------------9--|---9-9---9---9-9--|
D|-4---4---x-x-x-9--|---9-9---9---9-9--|
A|-4---4---x-x-x-7--|---7-7---7---7-7--|
E|-2---2---x-x-x----|------------------|

E|------------------|------------------|------------------|------------------|
B|------------------|------------------|------------------|------------------|
G|-7---7---7---7----|-7---7---7---7----|-9---9---9---9----|-9---9---9---9----|
D|-7---7---7---7----|-7---7---7---7----|-9---9---9---9----|-9---9---9---9----|
A|-5---5---5---5----|-5---5---5---5----|-7---7---7---7----|-7---7---7---7----|
E|------------------|------------------|------------------|------------------|

Guitar 2 (distorted):

E|------------------|------------------|------------------|------------------|
B|------------------|------------------|------------------|------------------|
G|11--11---------9--|---9-9---9---9-9--|---------------9--|---9-9---9---9-9--|
D|11--11---x-x-x-9--|---9-9---9---9-9--|11--11---x-x-x-9--|---9-9---9---9-9--|
A|-9---9---x-x-x-7--|---7-7---7---7-7--|11--11---x-x-x-7--|---7-7---7---7-7--|
E|---------x-x-x----|------------------|-9---9---x-x-x----|------------------|

E|------------------|------------------|------------------|------------------|
B|------------------|------------------|------------------|------------------|
G|---------------9--|---9-9---9---9-9--|-7---7---7---7----|-9---9---9---9----|
D|11--11---x-x-x-9--|---9-9---9---9-9--|-7---7---7---7----|-9---9---9---9----|
A|11--11---x-x-x-7--|---7-7---7---7-7--|-5---5---5---5----|-7---7---7---7----|
E|-9---9---x-x-x----|------------------|------------------|------------------|

E|------------------|------------------|------------------|------------------|
B|------------------|------------------|------------------|------------------|
G|11--11---------9--|---9-9---9---9-9--|---------------9--|---9-9---9---9-9--|
D|11--11---x-x-x-9--|---9-9---9---9-9--|11--11---x-x-x-9--|---9-9---9---9-9--|
A|-9---9---x-x-x-7--|---7-7---7---7-7--|11--11---x-x-x-7--|---7-7---7---7-7--|
E|---------x-x-x----|------------------|-9---9---x-x-x----|------------------|

E|------------------|------------------|
B|------------------|------------------|
G|---------------9--|---9-9---9---9-9--|
D|11--11---x-x-x-9--|---9-9---9---9-9--|
A|11--11---x-x-x-7--|---7-7---7---7-7--|
E|-9---9---x-x-x----|------------------|

E|------------------|------------------|------------------|------------------|
B|------------------|------------------|------------------|------------------|
G|-7---7---7---7----|-7---7---7---7----|-9---9---9---9----|-9---9---9---9----|
D|-7---7---7---7----|-7---7---7---7----|-9---9---9---9----|-9---9---9---9----|
A|-5---5---5---5----|-5---5---5---5----|-7---7---7---7----|-7---7---7---7----|
E|------------------|------------------|------------------|------------------|

Guitar 3 (distorted):

E|------------------|------------------|------------------|------------------|
B|------------------|------------------|------------------|------------------|
G|14--14--------13--|--1313--13--1313--|14--14--------13--|--1313--13--1313--|
D|------------------|------------------|------------------|------------------|
A|12--12--------11--|--1111--11--1111--|12--12--------11--|--1111--11--1111--|
E|------------------|------------------|------------------|------------------|

E|------------------|------------------|------------------|------------------|
B|------------------|------------------|------------------|------------------|
G|14--14--------13--|--1313--13--1313--|11--11--11--11----|13--13--13--13----|
D|------------------|------------------|------------------|------------------|
A|12--12--------11--|--1111--11--1111--|-9---9---9---9----|11--11--11--11----|
E|------------------|------------------|------------------|------------------|

E|------------------|------------------|------------------|------------------|
B|------------------|------------------|------------------|------------------|
G|14--14--------13--|--1313--13--1313--|14--14--------13--|--1313--13--1313--|
D|------------------|------------------|------------------|------------------|
A|12--12--------11--|--1111--11--1111--|12--12--------11--|--1111--11--1111--|
E|------------------|------------------|------------------|------------------|

E|------------------|------------------|
B|------------------|------------------|
G|14--14--------13--|--1313--13--1313--|
D|------------------|------------------|
A|12--12--------11--|--1111--11--1111--|
E|------------------|------------------|

E|------------------|------------------|------------------|------------------|
B|------------------|------------------|------------------|------------------|
G|11--11--11--11----|11--11--11--11----|13--13--13--13----|13--13--13--13----|
D|------------------|------------------|------------------|------------------|
A|-9---9---9---9----|-9---9---9---9----|11--11--11--11----|11--11--11--11----|
E|------------------|------------------|------------------|------------------|

Outro:
------------------------------------------------------------------------------

Guitars 1 & 2 (distorted):

E|------------------|
B|------------------|
G|------------------|
D|-4----------------|
A|-4----------------|
E|-2----------------|


*****************************************
* Song   : Anyone But You		*
* Artist : Rx Bandits			*
* Album  : Progress			*
* Year   : 2001				*
*****************************************
    Tabbed by: Bill Streckfus

Tempo = 210 bpm

Verse:
------------------------------------------------------------------------------

Guitars 1 & 2 (distorted):

E|------------------|------------------|------------------|------------------|
B|------------------|------------------|------------------|------------------|
G|----11------11----|----11------11----|------------------|------------------|
D|----11------11----|----11------11----|----11------11----|----11------11----|
A|-9-9-9---9-9-9----|-8-8-8---8-8-8----|-----8-------8----|-----8-------8----|
E|------------------|------------------|-9-9-9---9-9-9----|-9-9-9---9-9-9----|
   p.m.    p.m.       p.m.    p.m.       p.m.    p.m.       p.m.    p.m.

E|------------------|------------------|------------------|------------------|
B|------------------|------------------|------------------|------------------|
G|-x-x---x-4--------|-x-x---x-4--------|-x-x---x-4--------|-----4-------6----|
D|-x-x---x-4--------|-x-x---x-4--------|-x-x---x-4--------|-----4-------6----|
A|-x-x---x-2--------|-x-x---x-2--------|-x-x---x-2--------|-2-2-2---4-4-4----|
E|------------------|------------------|------------------|------------------|
                                                            p.m.    p.m.

E|------------------|------------------|------------------|------------------|
B|------------------|------------------|------------------|------------------|
G|----11------11----|----11------11----|------------------|----11h12-8-------|
D|----11------11----|----11------11----|----11------11----|--11-------11-----|
A|-9-9-9---9-9-9----|-8-8-8---8-8-8----|-----8-------8----|-9------------9-8-|
E|------------------|------------------|-9-9-9---9-9-9----|------------------|
   p.m.    p.m.       p.m.    p.m.       p.m.    p.m.
E|------------------|------------------|------------------|------------------|
B|------------------|------------------|------------------|------------------|
G|-x-x---x-4--------|-x-x---x-4--------|-4-4---4---4-4-4--|---4---4-4-4-6----|
D|-x-x---x-4--------|-x-x---x-4--------|-4-4---4---4-4-4--|---4---4-4-4-6----|
A|-x-x---x-2--------|-x-x---x-2--------|-2-2---2---2-2-2--|---2---2-2-2-4----|
E|------------------|------------------|------------------|------------------|
                                         p.m.p.m.p.m.p.m.p.m.p.m.p.m.p.m

Guitar 1 (distorted):

E|------------------|------------------|------------------|------------------|
B|------------------|------------------|------------------|------------------|
G|--------11111110--|--10-6---6---6-6--|--------11111110--|--10-6---6---6-6--|
D|------------------|------------------|------------------|------------------|
A|-9---9-9-9-9-9-8--|---8-4---4---4-4--|-9---9-9-9-9-9-8--|---8-4---4---4-4--|
E|------------------|------------------|------------------|------------------|

Guitar 2 (distorted):

E|------------------|------------------|------------------|------------------|
B|------------------|------------------|------------------|------------------|
G|------------------|------------------|--------11111110--|--10-6---6---6-6--|
D|------------------|------------------|------------------|------------------|
A|------------------|------------------|-9---9-9-9-9-9-8--|---8-4---4---4-4--|
E|------------------|------------------|------------------|------------------|

Chorus:
------------------------------------------------------------------------------

E|------------------|------------------|------------------|------------------|
B|------------------|------------------|------------------|------------------|
G|------------------|------------------|-6-------6---6-6--|---6-6---6-6-6-6--|
D|-4-------4---4-4--|---4-4---4-4-4-4--|-6-------6---6-6--|---6-6---6-6-6-6--|
A|-4-------4---4-4--|---4-4---4-4-4-4--|-4-------4---4-4--|---4-4---4-4-4-4--|
E|-2-------2---2-2--|---2-2---2-2-2-2--|------------------|------------------|

E|------------------|------------------|------------------|------------------|
B|------------------|------------------|------------------|------------------|
G|-4-------4---4-4--|---4-4---4-4-4-4--|-4-------4---4-4--|---4-4---4-4-4-4--|
D|-4-------4---4-4--|---4-4---4-4-4-4--|-4-------4---4-4--|---4-4---4-4-4-4--|
A|-2-------2---2-2--|---2-2---2-2-2-2--|-2-------2---2-2--|---2-2---2-2-2-2--|
E|------------------|------------------|------------------|------------------|

E|------------------|------------------|------------------|------------------|
B|------------------|------------------|------------------|------------------|
G|------------------|------------------|-6-------6---6-6--|---6-6---6-6-6-6--|
D|-4-------4---4-4--|---4-4---4-4-4-4--|-6-------6---6-6--|---6-6---6-6-6-6--|
A|-4-------4---4-4--|---4-4---4-4-4-4--|-4-------4---4-4--|---4-4---4-4-4-4--|
E|-2-------2---2-2--|---2-2---2-2-2-2--|------------------|------------------|

E|------------------|------------------|------------------|------------------|
B|------------------|------------------|------------------|------------------|
G|-4-------4---4-4--|---4-4---4--4--4--|-4----------------|-4----------------|
D|-4-------4---4-4--|---4-4---4--4--4--|-4----------------|-4----------------|
A|-2-------2---2-2--|---2-2---2--2--2--|-2----------------|-2----------------|
E|------------------|------------------|------------------|------------------|
                              p.m.p.m.   hold

From here play the verse twice followed by the chorus again

Bridge:
------------------------------------------------------------------------------

Guitars 1 & 2:

E|------------------|------------------|------------------|------------------|
B|------------------|------------------|------------------|------------------|
G|-------------3----|---------4-3------|------------------|------------------|
D|-----------4------|-------------4----|-------------3----|---------4-3------|
A|---------6--------|------------------|-----------4------|-------------4----|
E|------------------|------------------|---------6--------|------------------|

E|------------------|------------------|------------------|------------------|
B|------------------|------------------|------------------|------------------|
G|------------------|------------------|------------------|------------------|
D|------------------|------------------|------------------|------------------| x 2
A|-------1-2-2-2----|-------2-4-4-4----|-------4-6-6-6----|-8-8-8---9-9-9----|
E|------------------|------------------|------------------|------------------|

Guitar 3 (delay):

E|-6----------------|------------------|-1----------------|------------------|
B|-7----------------|------------------|-2----------------|------------------|
G|-8----------------|------------------|-3----------------|------------------|
D|-8----------------|------------------|-3----------------|------------------|
A|-6----------------|------------------|-1----------------|------------------|
E|------------------|------------------|------------------|------------------|

E|-7----------------|------------------|------------------|------------------|
B|-7----------------|------------------|------------------|------------------|
G|-8----------------|------------------|------------------|------------------|
D|-9----------------|------------------|------------------|------------------| x 2
A|------------------|------------------|------------------|------------------|
E|------------------|------------------|------------------|------------------|

Guitar 1:

E|-6---6---6---6----|-6---6---6---6----|-6---6---6---6----|-6---6---6---6----|
B|-7---7---7---7----|-7---7---7---7----|-6---6---6---6----|-6---6---6---6----|
G|-8---8---8---8----|-8---8---8---8----|-6---6---6---6----|-6---6---6---6----|
D|------------------|------------------|------------------|------------------|
A|------------------|------------------|------------------|------------------|
E|------------------|------------------|------------------|------------------|

Guitars 1 & 2 (distorted):

E|------------------|------------------|------------------|------------------|
B|------------------|------------------|------------------|------------------|
G|-4---4------------|-4---4---x-x-x-x--|-4---4------------|-4---4---6---6----|
D|-4---4------------|-4---4---x-x-x-x--|-4---4------------|-4---4---6---6----|
A|-2---2------------|-2---2---x-x-x-x--|-2---2------------|-2---2---4---4----|
E|------------------|------------------|------------------|------------------|

Guitar 1:

E|-6---6---6---6----|-6---6---6---6----|-6---6---6---6----|-6---6---6---6----|
B|-7---7---7---7----|-6---6---6---6----|-6---6---6---6----|-6---6---6---6----|
G|-8---8---8---8----|-6---6---6---6----|-6---6---6---6----|-6---6---6---6----|
D|------------------|------------------|------------------|------------------|
A|------------------|------------------|------------------|------------------|
E|------------------|------------------|------------------|------------------|

Guitars 1 & 2 (distorted):

E|------------------|------------------|------------------|------------------|
B|------------------|------------------|------------------|------------------|
G|-4---4---x-x-x-x--|-4---4---x-x-x-x--|-4---4---x-x-x-x--|-4----------------|
D|-4---4---x-x-x-x--|-4---4---x-x-x-x--|-4---4---x-x-x-x--|-4-------8-9-8-6--|
A|-2---2---x-x-x-x--|-2---2---x-x-x-x--|-2---2---x-x-x-x--|-2----------------|
E|------------------|------------------|------------------|---------6-7-6-4--|


Outro:
------------------------------------------------------------------------------

E|------------------|------------------|------------------|------------------|
B|------------------|------------------|------------------|------------------|
G|------------------|------------------|11/---------------|------------------|
D|-4----------------|------------------|11/---------------|------------------|
A|-4----------------|------------------|-9/---------------|------------------|
E|-2----------------|------------------|------------------|------------------|


*****************************************
* Song   : Nugget			*
* Artist : Rx Bandits			*
* Album  : Progress			*
* Year   : 2001				*
*****************************************
    Tabbed by: Bill Streckfus

Tempo = 180 bpm

Intro:
------------------------------------------------------------------------------

Guitar 1 (light wah/delay):

E|-6----------------|-------------4-4--|
B|-6----------------|-------------4-4--|
G|-6----------------|------------------|
D|------------------|------------------|
A|------------------|------------------|
E|------------------|------------------|

E|-4---6---x---6----|-x---8---x---8----|-x---6---x---6----|-x---6---x---8----|
B|-4---6---x---6----|-x---9---x---9----|-x---6---x---6----|-x---7---x---9----|
G|-----6---x---6----|-x---8---x---8----|-x---6---x---6----|-x---6---x---8----|
D|------------------|------------------|------------------|------------------|
A|------------------|------------------|------------------|------------------|
E|------------------|------------------|------------------|------------------|

E|-x---6---x---6----|-x---8---x---8----|-x---6---x---6----|-x---6---x---6----|
B|-x---6---x---6----|-x---9---x---9----|-x---6---x---6----|-x---6---x---6----|
G|-x---6---x---6----|-x---8---x---8----|-x---6---x---6----|-x---6---x---6----|
D|------------------|------------------|------------------|------------------|
A|------------------|------------------|------------------|------------------|
E|------------------|------------------|------------------|------------------|

E|-x---6---x---6----|-x---8---x---8----|-x---6---x---6----|-x---6---x---8----|
B|-x---6---x---6----|-x---9---x---9----|-x---6---x---6----|-x---7---x---9----|
G|-x---6---x---6----|-x---8---x---8----|-x---6---x---6----|-x---6---x---8----|
D|------------------|------------------|------------------|------------------|
A|------------------|------------------|------------------|------------------|
E|------------------|------------------|------------------|------------------|

E|-x---6---x---6----|-x---8---x---8----|-x---6---x---6----|-x---6-----6-x-6--|
B|-x---6---x---6----|-x---9---x---9----|-x---6---x---6----|-x---6-----6-x-6--|
G|-x---6---x---6----|-x---8---x---8----|-x---6---x---6----|-x---6-----6-x-6--|
D|------------------|------------------|------------------|------------------|
A|------------------|------------------|------------------|------------------|
E|------------------|------------------|------------------|------------------|

Verse:
------------------------------------------------------------------------------

The verse follows pretty closely to the intro.

Guitar 1 (light wah/delay):

E|-x---6---x---6----|-x---8---x---8----|-x---6---x---6----|-x---6---x---8----|
B|-x---6---x---6----|-x---9---x---9----|-x---6---x---6----|-x---7---x---9----|
G|-x---6---x---6----|-x---8---x---8----|-x---6---x---6----|-x---6---x---8----|
D|------------------|------------------|------------------|------------------|
A|------------------|------------------|------------------|------------------|
E|------------------|------------------|------------------|------------------|

E|-x---6---x---6----|-x---8---x---8----|-x---6---x---6----|-x---6-6-x---x-6--|
B|-x---6---x---6----|-x---9---x---9----|-x---6---x---6----|-x---6-6-x---x-6--|
G|-x---6---x---6----|-x---8---x---8----|-x---6---x---6----|-x---6-6-x---x-6--|
D|------------------|------------------|------------------|------------------|
A|------------------|------------------|------------------|------------------|
E|------------------|------------------|------------------|------------------|

E|-x---6---x---6----|-x---8---x---8----|-x---6---x---6----|-x---6---x---8----|
B|-x---6---x---6----|-x---9---x---9----|-x---6---x---6----|-x---7---x---9----|
G|-x---6---x---6----|-x---8---x---8----|-x---6---x---6----|-x---6---x---8----|
D|------------------|------------------|------------------|------------------|
A|------------------|------------------|------------------|------------------|
E|------------------|------------------|------------------|------------------|

E|-x---6---x---6----|-x---8---x---8----|-x---6---x-6---6--|---------x---x-x--|
B|-x---6---x---6----|-x---9---x---9----|-x---6---x-6---6--|---------x---x-x--|
G|-x---6---x---6----|-x---8---x---8----|-x---6---x-6---6--|---------x---x-x--|
D|------------------|------------------|---------------8--|------------------|
A|------------------|------------------|------------------|------------------|
E|------------------|------------------|------------------|------------------|

E|-x---2---x---2----|-x---4---x---4----|-x---6---x---6----|-x---6---x---6----|
B|-x---2---x---2----|-x---4---x---4----|-x---6---x---6----|-x---6---x---6----|
G|-x---3---x---3----|-x---5---x---5----|-x---6---x---6----|-x---6---x---6----|
D|------------------|------------------|------------------|------------------|
A|------------------|------------------|------------------|------------------|
E|------------------|------------------|------------------|------------------|

E|-x---6---x---6----|-x---8---x---8-8--|-x---6---x---6----|-x---6---x---6----|
B|-x---7---x---7----|-x---9---x---9-9--|-x---6---x---6----|-x---6---x---6----|
G|-x---6---x---6----|-x---8---x---8-8--|-x---6---x---6----|-x---6---x---6----|
D|------------------|------------------|------------------|------------------|
A|------------------|------------------|------------------|------------------|
E|------------------|------------------|------------------|------------------|

E|-6---x-------6-6/-|-8---8---x--11-8--|-x---6---x---6-6/-|-8-8-8-------8-8--|
B|-7---x-------7-7/-|-9---9---x---9-9--|-x---7---x---7-7/-|-9-9-9-------9-9--|
G|-6---x-------6-6/-|-8---8---x---8-8--|-x---6---x---6-6/-|-8-8-8-------8-8--|
D|-8----------------|------------------|------------------|------------------|
A|------------------|------------------|------------------|------------------|
E|------------------|------------------|------------------|------------------|

E|-x---6---x---6----|-x-6/8---x--11-8--|-6-6---------6----|-9/---------------|
B|-x---7---x---7----|-x-7/9---x---9-9--|-6-6---------6----|-6/---------------|
G|-x---6---x---6----|-x-6/8---x---8-8--|-6-6---------6----|-6/---------------|
D|------------------|------------------|------------------|------------------|
A|------------------|------------------|------------------|------------------|
E|------------------|------------------|------------------|------------------|

Chorus:
------------------------------------------------------------------------------

Guitar 1 (light wah/delay):

E|------------------|------------------|------------------|------------------|
B|------------------|------------------|------------------|------------------|
G|------------------|------------------|------------------|------------------|
D|---------8-8------|--------1010------|---------8-8------|------------10----|
A|-------9-----9----|------11----11----|-------9-----9----|11-11-11----------|
E|------------------|--------------11--|---------------9--|------------------|
                                                           p.m.p.m.

E|------------------|------------------|------------------|---------x-x-x----|
B|------------------|------------------|------------------|---------x-x-x----|
G|------------------|------------------|------------------|---------x-x-x----|
D|---------8-8------|--------1010------|---888-8-8---6----|-8/---------------|
A|-------9-----9----|11111111----11----|-----------8---8--|------------------|
E|---------------9--|--------------11--|------------------|------------------|
                     p.m.p.m.              p.m.p.m.p.m.

E|-x---2-x---x-2----|-x---4-x---x-4----|-x---2-x---x-2----|-x---4-x---x-4----|
B|-x---2-x---x-2----|-x---4-x---x-4----|-x---2-x---x-2----|-x---4-x---x-4----|
G|-x---3-x---x-3----|-x---5-x---x-5----|-x---3-x---x-3----|-x---5-x---x-5----|
D|------------------|------------------|------------------|------------------|
A|------------------|------------------|------------------|------------------|
E|------------------|------------------|------------------|------------------|

E|-x---2-x---x-2----|-x---4-x---x-4----|-----x-6---x--66--|-6/--------x-x----|
B|-x---2-x---x-2----|-x---4-x---x-4----|-----x-6---x--66--|-6/--------x-x----|
G|-x---3-x---x-3----|-x---5-x---x-5----|-----x-6---x--66--|-6/--------x-x----|
D|------------------|------------------|------------------|------------------|
A|------------------|------------------|------------------|------------------|
E|------------------|------------------|------------------|------------------|

Last Chorus Ending:

E|-x---2-x---x-2----|-x---4-x---x-4----|-----x-6---x---6--|-6-----6-----4----|
B|-x---2-x---x-2----|-x---4-x---x-4----|-----x-6---x---6--|-6-----6-----4----|
G|-x---3-x---x-3----|-x---5-x---x-5----|-----x-6---x---6--|-6-----6-----5----|
D|------------------|------------------|------------------|------------------|
A|------------------|------------------|------------------|------------------|
E|------------------|------------------|------------------|------------------|

E|-2----------------|-4----------------|-2----------------|-4----------------|
B|-2----------------|-4----------------|-2----------------|-4----------------|
G|-3----------------|-5----------------|-3----------------|-5----------------|
D|------------------|------------------|------------------|------------------|
A|------------------|------------------|------------------|------------------|
E|------------------|------------------|------------------|------------------|

E|-2----------------|-4----------------|-6-6-6-6-6-6-6-6--|-6----------------|
B|-2----------------|-4----------------|-6-6-6-6-6-6-6-6--|-6----------------|
G|-3----------------|-5----------------|-6-6-6-6-6-6-6-6--|-6----------------|
D|------------------|------------------|------------------|------------------|
A|------------------|------------------|------------------|------------------|
E|------------------|------------------|------------------|------------------|

Verse 2:
------------------------------------------------------------------------------

Guitar 1 (light wah/delay):

E|-x---6---x---6----|-x---8---x---8----|-x---6---x---6----|-x---6---x---8----|
B|-x---6---x---6----|-x---9---x---9----|-x---6---x---6----|-x---7---x---9----|
G|-x---6---x---6----|-x---8---x---8----|-x---6---x---6----|-x---6---x---8----|
D|------------------|------------------|------------------|------------------|
A|------------------|------------------|------------------|------------------|
E|------------------|------------------|------------------|------------------|

E|-x---6---x---6----|-x---8---x---8----|-x---6---x---6----|-x---6---x---6----|
B|-x---6---x---6----|-x---9---x---9----|-x---6---x---6----|-x---6---x---6----|
G|-x---6---x---6----|-x---8---x---8----|-x---6---x---6----|-x---6---x---6----|
D|------------------|------------------|------------------|------------------|
A|------------------|------------------|------------------|------------------|
E|------------------|------------------|------------------|------------------|

E|-x---6---x---6----|-x---8---x---8----|-x---6---x---6----|-x---6---x---8----|
B|-x---6---x---6----|-x---9---x---9----|-x---6---x---6----|-x---7---x---9----|
G|-x---6---x---6----|-x---8---x---8----|-x---6---x---6----|-x---6---x---8----|
D|------------------|------------------|------------------|------------------|
A|------------------|------------------|------------------|------------------|
E|------------------|------------------|------------------|------------------|

E|-x---6---x---6----|-x---8---x---8----|-x---6---x-6---6--|------------------|
B|-x---6---x---6----|-x---9---x---9----|-x---6---x-6---6--|------------------|
G|-x---6---x---6----|-x---8---x---8----|-x---6---x-6---6--|------------------|
D|------------------|------------------|---------------8--|------------------|
A|------------------|------------------|------------------|------------------|
E|------------------|------------------|------------------|------------------|

E|-x---6---x---6----|-x---8---x---8----|-x---6---x---6----|-x---6---x---8----|
B|-x---6---x---6----|-x---9---x---9----|-x---6---x---6----|-x---7---x---9----|
G|-x---6---x---6----|-x---8---x---8----|-x---6---x---6----|-x---6---x---8----|
D|------------------|------------------|------------------|------------------|
A|------------------|------------------|------------------|------------------|
E|------------------|------------------|------------------|------------------|

E|-x---6---x---6----|-x---8---x---8----|-x---6---x---8----|-----------8-x-6--|
B|-x---6---x---6----|-x---9---x---9----|-x---6---x---9----|-----------9-x-6--|
G|-x---6---x---6----|-x---8---x---8----|-x---6---x---8----|-----------8-x-6--|
D|------------------|------------------|------------------|------------------|
A|------------------|------------------|------------------|------------------|
E|------------------|------------------|------------------|------------------|

E|-6---6---x---6----|-x---8---x--11--8-|-x---6---x---6----|-x---6---x---8-8--|
B|-6---6---x---6----|-x---9---x---9--9-|-x---6---x---6----|-x---7---x---9-9--|
G|-6---6---x---6----|-x---8---x---8--8-|-x---6---x---6----|-x---6---x---8-8--|
D|-8----------------|------------------|------------------|------------------|
A|------------------|------------------|------------------|------------------|
E|------------------|------------------|------------------|------------------|

E|-x---6---x---6----|-x---8---x--11--8-|-x---x-6-x---6----|-6----------------|
B|-x---6---x---6----|-x---9---x---9--9-|-x---x-6-x---6----|-6----------------|
G|-x---6---x---6----|-x---8---x---8--8-|-x---x-6-x---6----|-6----------------|
D|------------------|------------------|------------------|-8----------------|
A|------------------|------------------|------------------|------------------|
E|------------------|------------------|------------------|------------------|

Jam Session
------------------------------------------------------------------------------

Guitar 1:

E|---------5---5----|-5---5-x-5---x-x--|------------------|------------------|
B|-5-------5---5----|-5---5-x-7---x-x--|------------------|------------------|
G|-----7---5---5----|-5---5-x-5---x-x--|-7---7---9---9----|10--10--12--12----|
D|------------------|------------------|------------------|------------------|
A|------------------|------------------|-5---5---7---7----|-8---8--10--10----|
E|------------------|------------------|------------------|------------------|

E|-5---5---5---5----|------------------|------------------|------------------|
B|-5---5---5---5----|------------------|------------------|------------------|
G|-5---5---5---5----|------------------|-7---7---9---9----|10--10--12--12----|
D|------------------|------------------|------------------|------------------|
A|------------------|------------------|-5---5---7---7----|-8---8--10--10----|
E|------------------|------------------|------------------|------------------|
                                   rake

E|-5---5---5---5----|------------------|------------------|------------------|
B|-5---5---5---5----|------------------|------------------|------------------|
G|-5---5---5---5----|------------------|-7---7---9---9----|10--10--12--12-x--|
D|------------------|------------------|------------------|------------------|
A|------------------|------------------|-5---5---7---7----|-8---8--10--10-x--|
E|------------------|------------------|------------------|------------------|

E|-5---5---5---5----|------------------|------------------|------------------|
B|-5---5---5---5----|------------------|------------------|------------------|
G|-5---5---5---5----|------------------|-7---7---9---9----|10--10--12--------|
D|------------------|------------------|------------------|------------------|
A|------------------|------------------|-5---5---7---7----|-8---8--10--------|
E|------------------|------------------|------------------|------------------|

E|-5---5---5---5-x--|-5---5---5---x----|------------------|------------------|
B|-5---5---5---5-x--|-5---5---5---x----|------------------|------------------|
G|-5---5---5---5-x--|-5---5---5---x----|-7---7-x-9---9-x--|10--10-x12-1212/--|
D|-2---2---2---2----|------------------|------------------|------------------|
A|------------------|------------------|-5---5-x-7---7-x--|-8---8-x10-1010/--|
E|------------------|------------------|------------------|------------------|
                                  rake

E|-5---5---5--55----|---------5--------|------------------|------------------|
B|-5---5---5--55----|---------5--------|------------------|------------------|
G|-5---5---5--55----|---------5--------|-7---7-x-9---9-12-|10--101412--12----|
D|------------------|------------------|------------------|------------------|
A|------------------|------------------|-5---5-x-7---7-10-|-8---81210--10----|
E|------------------|------------------|------------------|------------------|

E|-5---5---5---5~---|---------5~-------|------------------|------------------|
B|-5---5---5---5~---|---------5~-------|------------------|------------------|
G|-5---5---5---5~---|---------5~-------|-7---7---9---9----|10--101412--12----|
D|------------------|------------------|------------------|------------------|
A|------------------|------------------|-5---5---7---7----|-8---81210--10----|
E|------------------|------------------|------------------|------------------|

E|-8----------8-----|------------------|------------------|------------------|
B|10---8--10---10~--|------------------|------------------|------------------|
G|------------------|-------x1412------|-7---7---9---9----|10--1010121212----|
D|------------------|------------------|------------------|------------------|
A|------------------|-------x1210------|-5---5---7---7----|-8---8-8101010----|
E|------------------|------------------|------------------|------------------|

E|------------------|------------------|------------------|------------------|
B|------------------|------------------|------------------|------------------|
G|------------------|------------------|-7--77--57--77--5-|-7--77--57--99----|
D|------------------|------------------|------------------|------------------|
A|------------------|------------------|------------------|------------------|
E|------------------|------------------|------------------|------------------|
                                         p.m.p.m.p.m.p.m.   p.m.p.m.p.m.p.m.

E|------------------|------------------|------------------|------------------|
B|------------------|------------------|------------------|------------------|
G|-----9999---------|------------------|-7---7---7---7--5-|-7--57--9---------|
D|----7-----107-----|------------------|------------------|---------10-9--77-|
A|------------------|------------------|------------------|------------------|
E|------------------|------------------|------------------|------------------|
      p.m.p.m.

E|------------------|------------------|------------------|------------------|
B|------------------|------------------|------------------|------------------|
G|-------------9----|------------------|-7---7--57---7--5-|-7-5--7-5------77-|
D|-7---910----------|------------------|------------------|------------------|
A|------------------|------------------|------------------|------------------|
E|------------------|------------------|------------------|------------------|

E|------------------|------------------|------------------|------------------|
B|------------------|------------------|------------------|------------------|
G|-------------9----|------------------|-7---7--57---7--5-|-7-5--7-5------77-|
D|-7---910----------|------------------|------------------|------------------|
A|------------------|------------------|------------------|------------------|
E|------------------|------------------|------------------|------------------|

E|------------------|------------------|------------------|------------------|
B|------------------|------------------|------------------|------------------|
G|-------------9----|------------------|-7---7--57---7--5-|-7-5--7-5------77-|
D|-7---7---7--------|------------------|------------------|------------------|
A|------------------|------------------|------------------|------------------|
E|------------------|------------------|------------------|------------------|

E|------------------|------------------|------------------|------------------|
B|------------------|------------------|------------------|------------------|
G|------------------|-------------7/---|------------------|------------------|
D|------------------|------------------|------------------|------------------|
A|------------------|-------------5/---|------------------|------------------|
E|------------------|------------------|------------------|------------------|

Guitar 2:

E|------------------|------------------|------------------|------------------|
B|------------------|------------------|------------------|------------------|
G|------------------|------------------|------------------|------------------|
D|------------------|------------------|-----7-------7----|-----7-------7----|
A|------------------|------------------|------------------|------------------|
E|------------------|------------------|------------------|------------------|

E|------------------|------------------|------------------|------------------|
B|----10------10----|----10------10----|----10------10----|----10------10----|
G|------------------|------------------|------------------|------------------|
D|------------------|------------------|------------------|------------------|
A|------------------|------------------|------------------|------------------|
E|------------------|------------------|------------------|------------------|

E|------------------|------------------|------------------|------------------|
B|----10------10----|----10------10----|----10------10----|----10------10----|
G|------------------|------------------|------------------|------------------|
D|------------------|------------------|------------------|------------------|
A|------------------|------------------|------------------|------------------|
E|------------------|------------------|------------------|------------------|
                                           p.m.    p.m.        p.m.    p.m.

E|------------------|------------------|------------------|------------------|
B|------------------|------------------|----10------10----|------------------|
G|------------------|------------------|------------------|------------------|
D|------------------|------------------|------------------|------------------|
A|------------------|------------------|------------------|------------------|
E|------------------|------------------|------------------|------------------|
                                           p.m.    p.m.

E|------------------|------------------|------------------|------------------|
B|----------1010b12-|----1010b12-10----|----------10b12---|----10b12---10b12-|
G|------------------|------------------|------------------|------------------|
D|------------------|------------------|------------------|------------------|
A|------------------|------------------|------------------|------------------|
E|------------------|------------------|------------------|------------------|

E|------------------|------------------|------------------|------------------|
B|------------------|------------------|----------10b1210-|----10b1210-10b12-|
G|------------------|------------------|------------------|------------------|
D|------------------|------------------|------------------|------------------|
A|------------------|------------------|------------------|------------------|
E|------------------|------------------|------------------|------------------|

E|------------------|------------------|------------------|------------------|
B|----------1010b12-|--10-10--10/------|------------------|------------------|
G|------------------|------------------|------------------|------------------|
D|------------------|------------------|------------------|------------------|
A|------------------|------------------|------------------|------------------|
E|------------------|------------------|------------------|------------------|

E|------------------|------------------|------------------|------------------|
B|----------1010b12-|------------------|------------------|------------------|
G|------------------|------------------|------------------|------------------|
D|------------------|------------------|------------------|------------------|
A|------------------|------------------|------------------|------------------|
E|------------------|------------------|------------------|------------------|

E|------------------|------------------|------------------|------------------|
B|----10------10----|----10------10----|------------------|------------------|
G|------------------|------------------|------------------|------------------|
D|------------------|------------------|------------------|------------------|
A|------------------|------------------|------------------|------------------|
E|------------------|------------------|------------------|------------------|

E|------------------|------------------|------------------|------------------|
B|------------------|------------------|------------------|------------------|
G|------------------|------------------|------------------|------------------|
D|------------------|------------------|------------------|------------------|
A|------------------|------------------|------------------|------------------|
E|------------------|------------------|------------------|------------------|

E|------------------|------------------|------------------|------------------|
B|------------------|------------------|------------------|------------------|
G|------------------|------------------|------------------|------------------|
D|------------------|------------------|------------------|------------------|
A|------------------|------------------|------------------|------------------|
E|------------------|------------------|------------------|------------------|

E|------------------|------------------|------------------|------------------|
B|------------------|------------------|------------------|------------------|
G|------------------|------------------|------------------|------------------|
D|-------------7----|------------------|------------------|------------------|
A|------------------|------------------|------------------|------------------|
E|------------------|------------------|------------------|------------------|
             delay

E|------------------|------------------|------------------|------------------|
B|------------------|------------------|------------------|------------------|
G|------------------|------------------|------------------|------------------|
D|------------------|------------------|------------------|------------------|
A|------------------|------------------|------------------|------------------|
E|------------------|------------------|------------------|------------------|

E|------------------|------------------|------------------|------------------|
B|------------------|------------------|------------------|------------------|
G|------------------|------------------|------------------|------------------|
D|------------------|------------------|------------------|------------------|
A|-------------3h5--|------------------|------------------|------------------|
E|------------------|------------------|------------------|------------------|
             delay


*****************************************
* Song   : Progress			*
* Artist : Rx Bandits			*
* Album  : Progress			*
* Year   : 2001				*
*****************************************
    Tabbed by: Bill Streckfus

Tempo = 205 bpm

Intro / Verse:
------------------------------------------------------------------------------

Guitar 1:

E|------------------|------------------|------------------|------------------|
B|------------------|------------------|------------------|------------------|
G|-7----------------|------------------|------------------|------------------|
D|-7----------------|------------------|------------------|------------------|
A|------------------|------------------|------------------|------------------|
E|------------------|------------------|------------------|------------------|
   (feedback)

E|-----1---x---1----|-x---1---x-x-0----|-x---1---x---1----|-x---5-----0-0-0--|
B|-----3---x---3----|-x---1---x-x-1----|-x---2---x---2----|-x---6-----1-1-1--|
G|-----2---x---2----|-x---2---x-x-0----|-x---3---x---3----|-x---5-----0-0-0--|
D|------------------|------------------|------------------|------------------|
A|------------------|------------------|------------------|------------------|
E|------------------|------------------|------------------|------------------|

E|-x---5---x---5----|-x---1---x-x-0----|-x---5---x-x-5----|------------------|
B|-x---6---x---6----|-x---1---x-x-1----|-x---6---x-x-6----|------------------|
G|-x---7---x---7----|-x---2---x-x-0----|-x---7---x-x-7----|------------------|
D|------------------|------------------|------------------|-------8-8-8-8-8--|
A|------------------|------------------|------------------|-6-6-6-6-6-6-6-6--|
E|------------------|------------------|------------------|------------------|

E|------------------|
B|-----8-8-8-8-8-8--|
G|-8-8-8-8-8-8-8-8--|
D|-8-8-8-8-8-8-8-8--|
A|-6-6-6-6-6-6-6-6--|
E|------------------|

E|-----1---x---1----|-x---1---x-x-0----|-x---1---x---1----|-x---5-----0-0-0--|
B|-----3---x---3----|-x---1---x-x-1----|-x---2---x---2----|-x---6-----1-1-1--|
G|-----2---x---2----|-x---2---x-x-0----|-x---3---x---3----|-x---5-----0-0-0--|
D|------------------|------------------|------------------|------------------|
A|------------------|------------------|------------------|------------------|
E|------------------|------------------|------------------|------------------|

E|-x---5---x---5----|-x---1---x-x-0----|-x---5---x-x-5----|-x---0------------|
B|-x---6---x---6----|-x---1---x-x-1----|-x---6---x-x-6----|-x---1------------|
G|-x---7---x---7----|-x---2---x-x-0----|-x---7---x-x-7----|-x---0------------|
D|------------------|------------------|------------------|------------------|
A|------------------|------------------|------------------|------------------|
E|------------------|------------------|------------------|------------------|


Pre-Chorus:
------------------------------------------------------------------------------

E|-x-x-x-x-1--------|-----x-1----------|-x-x-x-x-1--------|-----x-1----------|
B|-x-x-x-x-3--------|-----x-3----------|-x-x-x-x-3--------|-----x-3----------|
G|-x-x-x-x-2--------|-----x-2----------|-x-x-x-x-2--------|-----x-2----------|
D|------------------|------------------|------------------|------------------|
A|------------------|------------------|------------------|------------------|
E|------------------|------------------|------------------|------------------|

E|-x-x-x-x-1--------|-----x-1----------|-x-x-x-x-1--------|-----x------------|
B|-x-x-x-x-3--------|-----x-3----------|-x-x-x-x-3--------|-----x------------|
G|-x-x-x-x-2--------|-----x-2----------|-x-x-x-x-2--------|-----x------------|
D|------------------|------------------|------------------|------------------|
A|------------------|------------------|------------------|------------------|
E|------------------|------------------|------------------|------------------|

Guitars 1 & 2 (distorted):

E|------------------|------------------|------------------|------------------|
B|------------------|---------6-----9/-|------------------|-----6---------9--|
G|-7-7-7---7---7-7--|-------5-----7----|-7-7-7---7---7-7--|-------5-----7----|
D|------------------|-----3-----5------|------------------|---------3-5------|
A|-5-5-5---5---5-5--|------------------|-5-5-5---5---5-5--|------------------|
E|------------------|------------------|------------------|------------------|

E|------------------|------------------|------------------|------------------|
B|------------------|---------6-----9/-|------------------|------------------|
G|-7---7---7-7-7-7--|-------5-----7----|-7-7-7---7/-------|------------------|
D|------------------|-----3-----5------|------------------|-----3-------5----|
A|-5---5---5-5-5-5--|------------------|-5-5-5---5/-------|-----3-------5----|
E|------------------|------------------|------------------|---1-1---3-3-3----|
                                                            p.m.    p.m.

E|------------------|-5-5-5/-----------|
B|------------------|-6-6-6/-----------|
G|------------------|-7-7-7/-----------|
D|------------------|-7-7-7/-----------|
A|------------------|-5-5-5/-----------|
E|------------------|------------------|

Verse 2:
------------------------------------------------------------------------------

E|-----1---x---1----|-x---1---x-x-1----|-x---1---x---1----|-x---1---x---1----|
B|-----3---x---3----|-x---1---x-x-1----|-x---2---x---2----|-x---1---x---1----|
G|-----2---x---2----|-x---2---x-x-2----|-x---3---x---3----|-x---2---x---2----|
D|------------------|------------------|------------------|------------------|
A|------------------|------------------|------------------|------------------|
E|------------------|------------------|------------------|------------------|

E|-----1---x---1----|-x---5---x-x-5----|-x---1---x---1----|------------------|
B|-----3---x---3----|-x---6---x-x-6----|-x---3---x---3----|------------------|
G|-----2---x---2----|-x---5---x-x-5----|-x---2---x---2----|------------------|
D|------------------|------------------|------------------|-------8-8-8-8-8--|
A|------------------|------------------|------------------|-6-6-6-6-6-6-6-6--|
E|------------------|------------------|------------------|------------------|

E|------------------|
B|-----8-8-8-8-8-8--|
G|-8-8-8-8-8-8-8-8--|
D|-8-8-8-8-8-8-8-8--|
A|-6-6-6-6-6-6-6-6--|
E|------------------|

E|-----1---x---1----|-x---5---x---5----|-x---1---x---1----|-x---1-----0-0-0--|
B|-----3---x---3----|-x---6---x---6----|-x---2---x---2----|-x---1-----1-1-1--|
G|-----2---x---2----|-x---5---x---5----|-x---3---x---3----|-x---2-----0-0-0--|
D|------------------|------------------|------------------|------------------|
A|------------------|------------------|------------------|------------------|
E|------------------|------------------|------------------|------------------|

E|-x---1---x---1----|-1---1---1---1----|-x--10---x--10----|-x---x---x---x----|
B|-x---3---x---3----|-1---1---1---3----|-x--10---x--10----|-x---x---x---x----|
G|-x---2---x---2----|-2---2---2---2----|-x--10---x--10----|-x---x---x---x----|
D|------------------|------------------|------------------|------------------|
A|------------------|------------------|------------------|------------------|
E|------------------|------------------|------------------|------------------|

Pre-Chorus:
------------------------------------------------------------------------------

E|-x-x-x-x-1--------|-----x-1----------|-x-x-x-x-1--------|-----x-1----------|
B|-x-x-x-x-3--------|-----x-3----------|-x-x-x-x-3--------|-----x-3----------|
G|-x-x-x-x-2--------|-----x-2----------|-x-x-x-x-2--------|-----x-2----------|
D|------------------|------------------|------------------|------------------|
A|------------------|------------------|------------------|------------------|
E|------------------|------------------|------------------|------------------|

E|-x-x-x-x-1--------|-----x-1----------|-x-x-x-x-1--------|-----x------------|
B|-x-x-x-x-3--------|-----x-3----------|-x-x-x-x-3--------|-----x------------|
G|-x-x-x-x-2--------|-----x-2----------|-x-x-x-x-2--------|-----x------------|
D|------------------|------------------|------------------|------------------|
A|------------------|------------------|------------------|------------------|
E|------------------|------------------|------------------|------------------|

Guitars 1 & 2 (distorted):

E|------------------|------------------|------------------|------------------|
B|------------------|------------------|------------------|------------------|
G|-7-7-7---7---7-7--|--------10----12--|-7-7-7---7---7-7--|----10--------12--|
D|------------------|------10----12----|------------------|------10----12----|
A|-5-5-5---5---5-5--|-----8----10------|-5-5-5---5---5-5--|---------810------|
E|------------------|------------------|------------------|------------------|

E|------------------|------------------|------------------|------------------|
B|------------------|------------------|------------------|------------------|
G|-7---7---7-7-7-7--|--------10----12--|-7-7-7---7/-------|------------------|
D|------------------|------10----12----|------------------|---x-3---5-5-5----|
A|-5---5---5-5-5-5--|-----8----10------|-5-5-5---5/-------|---x-3---5-5-5----|
E|------------------|------------------|------------------|---x-1---3-3-3----|

Guitar 1 (distorted):

E|------------------|
B|------------------|
G|------------------|
D|---x-3---5-5-5----|
A|---x-3---5-5-5----|
E|---x-1---3-3-3----|

Guitar 2 (distorted):

E|------------------|
B|------------------|
G|---x10--121212----|
D|---x10--121212----|
A|---x-8--101010----|
E|------------------|

Chorus :
------------------------------------------------------------------------------

Guitar 1 (distorted):

E|-5---5---5-5-5----|------------------|------------------|------------------|
B|-6---6---6-6-6----|------------------|------------------|------------------|
G|-7---7---7-7-7-5--|-----5---5-5-5----|---------------3--|-----3---3-3-3-7--|
D|-7---7---7-7-7-5--|-----5---5-5-5-5--|-----5---5-5-5-3--|-----3---3-3-3-7--|
A|-5---5---5-5-5-3--|-----3---3-3-3-5--|-----5---5-5-5-1--|-----1---1-1-1-5--|
E|------------------|---------------3--|-----3---3-3-3----|------------------|

E|------------------|------------------|------------------|------------------|
B|------------------|------------------|------------------|------------------|
G|-----7---7-7-7-5--|-----5---5-5-512--|----1212--12--12--|--121212--1212-7--|
D|-----7---7-7-7-5--|-----5---5-5-5----|------------------|---------------7--|
A|-----5---5-5-5-3--|-----3---3-3-310--|----1010--10--10--|--101010--1010-5--|
E|------------------|------------------|------------------|------------------|

E|------------------|------------------|------------------|------------------|
B|------------------|------------------|------------------|------------------|
G|-----7---7-7-7-5--|-----5---5-5-5----|---------------3--|-----3---3-3-3-7--|
D|-----7---7-7-7-5--|-----5---5-5-5-5--|-----5---5-5-5-3--|-----3---3-3-3-7--|
A|-----5---5-5-5-3--|-----3---3-3-3-5--|-----5---5-5-5-1--|-----1---1-1-1-5--|
E|------------------|---------------3--|-----3---3-3-3----|------------------|

E|------------------|------------------|------------------|------------------|
B|------------------|------------------|------------------|------------------|
G|-----7---7-7-7-5--|-----5---5-5-512--|1212121212121212--|1212121212121212--|
D|-----7---7-7-7-5--|-----5---5-5-5----|------------------|------------------|
A|-----5---5-5-5-3--|-----3---3-3-310--|1010101010101010--|1010101010101010--|
E|------------------|------------------|------------------|------------------|

Guitar 2 (distorted):

E|-5---5---5-5-5----|------------------|------------------|------------------|
B|-6---6---6-6-6----|------------------|------------------|------------------|
G|-7---7---7-7-7-5--|-----5---5-5-5----|---------------3--|-----3---3-3-3-7--|
D|-7---7---7-7-7-5--|-----5---5-5-5-5--|-----5---5-5-5-3--|-----3---3-3-3-7--|
A|-5---5---5-5-5-3--|-----3---3-3-3-5--|-----5---5-5-5-1--|-----1---1-1-1-5--|
E|------------------|---------------3--|-----3---3-3-3----|------------------|

E|------------------|------------------|------------------|------------------|
B|------------------|------------------|------------------|------------------|
G|-----7---7-7-7-9--|-----9---9-9-916--|----1616--16--16--|--161616--1616-7--|
D|------------------|------------------|------------------|---------------7--|
A|-----5---5-5-5-7--|-----7---7-7-714--|----1010--10--10--|--101010--1010-5--|
E|------------------|------------------|------------------|------------------|

E|------------------|------------------|------------------|------------------|
B|------------------|------------------|------------------|------------------|
G|-----7---7-7-7-5--|-----5---5-5-5----|---------------3--|-----3---3-3-3-7--|
D|-----7---7-7-7-5--|-----5---5-5-5-5--|-----5---5-5-5-3--|-----3---3-3-3-7--|
A|-----5---5-5-5-3--|-----3---3-3-3-5--|-----5---5-5-5-1--|-----1---1-1-1-5--|
E|------------------|---------------3--|-----3---3-3-3----|------------------|

E|------------------|------------------|------------------|------------------|
B|------------------|------------------|------------------|------------------|
G|-----7---7-7-7-5--|-----5---5-5-516--|1616161616161616--|1616161616161616--|
D|-----7---7-7-7-5--|-----5---5-5-5----|------------------|------------------|
A|-----5---5-5-5-3--|-----3---3-3-314--|1414141414141414--|1414141414141414--|
E|------------------|------------------|------------------|------------------|

Bridge:
------------------------------------------------------------------------------

Guitar 1:

E|------------------|------------------|---------------xx-|10-10-10-10-10-10-|
B|------------------|------------------|---------------xx-|10-10-10-10-10-10-|
G|------------------|------------------|---------------xx-|10-10-10-10-10-10-|
D|------------------|------------------|------------------|------------------|
A|------------------|------------------|------------------|------------------|
E|------------------|------------------|------------------|------------------|

E|-x--10---x--10----|------------------|-x--10---x--10----|------------------|
B|-x--10---x--10----|-x-x10-x-x-x10-x--|-x--10---x--10----|-x-x10-x-x-x10-x--|
G|-x--10---x--10----|-x-x10-x-x-x10-x--|-x--10---x--10----|-x-x10-x-x-x10-x--|
D|------------------|-x-x10-x-x-x10-x--|------------------|-x-x10-x-x-x10-x--| x 2
A|------------------|------------------|------------------|------------------|
E|------------------|------------------|------------------|------------------|

E|-x10----10---x----|------------------|-x1010--10---x----|------------------|
B|-x10----10---x----|-x-x10-x-x-x10-x--|-x1010--10---x----|-x-x10-x-x-x10-x--|
G|-x10----10---x----|-x-x10-x-x-x10-x--|-x1010--10---x----|-x-x10-x-x-x10-x--|
D|------------------|-x-x10-x-x-x10-x--|------------------|-x-x10-x-x-x10-x--|
A|------------------|------------------|------------------|------------------|
E|------------------|------------------|------------------|------------------|

E|-x10----10---x----|------------------|-x10-x-x10-x-x-x--|------------------|
B|-x10----10---x----|-x-x10-x-x-x10-x--|-x10-x-x10-x-x-x--|-x-x10-x-x-x10-x--|
G|-x10----10---x----|-x-x10-x-x-x10-x--|-x10-x-x10-x-x-x--|-x-x10-x-x-x10-x--|
D|------------------|-x-x10-x-x-x10-x--|------------------|-x-x10-x-x-x10-x--|
A|------------------|------------------|------------------|------------------|
E|------------------|------------------|------------------|------------------|

E|-x-x10-x-x-x10-x--|------------------|-x-x10-x-x-x10-x--|------------------|
B|-x-x10-x-x-x10-x--|-x-x10-x-x-x10-x--|-x-x10-x-x-x10-x--|-x-x10-x-x-x10-x--|
G|-x-x10-x-x-x10-x--|-x-x10-x-x-x10-x--|-x-x10-x-x-x10-x--|-x-x10-x-x-x10-x--|
D|------------------|-x-x10-x-x-x10-x--|------------------|-x-x10-x-x-x10-x--|
A|------------------|------------------|------------------|------------------|
E|------------------|------------------|------------------|------------------|

E|-x-x10-x-x-x10-x--|------------------|-x-x10-x-x-x10-x--|------------------|
B|-x-x10-x-x-x10-x--|-x-x10-x-x-x10-x--|-x-x10-x-x-x10-x--|-x-x10-x-x-x10-x--|
G|-x-x10-x-x-x10-x--|-x-x10-x-x-x10-x--|-x-x10-x-x-x10-x--|-x-x10-x-x-x10-x--|
D|------------------|-x-x10-x-x-x10-x--|------------------|-x-x10-x-x-x10-x--|
A|------------------|------------------|------------------|------------------|
E|------------------|------------------|------------------|------------------|

Outro:
------------------------------------------------------------------------------

Guitar 1 (distorted):

E|------------------|------------------|------------------|------------------|
B|------------------|------------------|------------------|------------------|
G|-7-7-7---7---7-7--|--------10----12--|-7-7-7---7---7-7--|----10--------12--|
D|------------------|------10----12----|------------------|------10----12----|
A|-5-5-5---5---5-5--|-----8----10------|-5-5-5---5---5-5--|---------810------|
E|------------------|------------------|------------------|------------------|

E|------------------|------------------|------------------|------------------|
B|------------------|------------------|------------------|------------------|
G|-7-7-7---7---7-7--|--------10----12--|-7-7-7---7--------|------------------|
D|------------------|------10----12----|------------------|------------------|
A|-5-5-5---5---5-5--|-----8----10------|-5-5-5---5--------|------------------|
E|------------------|------------------|------------------|------------------|

Guitar 1 (distorted):

E|------------------|------------------|------------------|------------------|
B|------------------|------------------|------------------|------------------|
G|-7-7-7---7---7-7--|--10101012121212--|-7-7-7---7---7-7--|--10101012121212--|
D|-7-7-7---7---7-7--|--10101012121212--|-7-7-7---7---7-7--|--10101012121212--|
A|-5-5-5---5---5-5--|---8-8-810101010--|-5-5-5---5---5-5--|---8-8-810101010--|
E|------------------|------------------|------------------|------------------|

E|------------------|------------------|------------------|------------------|
B|------------------|------------------|------------------|------------------|
G|-7-7-7---7---7-7--|--10101012121212--|-7-7---7-7---9-9--|---9-9-91010-9-9--|
D|-7-7-7---7---7-7--|--10101012121212--|------------------|------------------|
A|-5-5-5---5---5-5--|---8-8-810101010--|-5-5---5-5---7-7--|---7-7-7-8-8-7-7--|
E|------------------|------------------|------------------|------------------|

E|------------------|------------------|------------------|------------------|
B|------------------|------------------|------------------|------------------|
G|-7-7-7---7---7-7--|--10101012121212--|-7-7-7---7---7-7--|--10101012121212--|
D|-7-7-7---7---7-7--|--10101012121212--|-7-7-7---7---7-7--|--10101012121212--|
A|-5-5-5---5---5-5--|---8-8-810101010--|-5-5-5---5---5-5--|---8-8-810101010--|
E|------------------|------------------|------------------|------------------|

E|------------------|------------------|------------------|------------------|
B|------------------|------------------|------------------|------------------|
G|-7-7-7---7---7-7--|--10101012121212--|-7-9---910--1010--|--10--101010-9-9--|
D|-7-7-7---7---7-7--|--10101012121212--|------------------|------------------|
A|-5-5-5---5---5-5--|---8-8-810101010--|-5-7---7-8---8-8--|---8---8-8-8-7-7--|
E|------------------|------------------|------------------|------------------|

E|------------------|------------------|------------------|------------------|
B|------------------|------------------|------------------|------------------|
G|-7-7---x-7-7---x--|-9-9---x1010---x--|-7-7---x-7-7---x--|1010---x-9-9---x--|
D|------------------|------------------|------------------|------------------|
A|-5-5---x-5-5---x--|-7-7---x-8-8---x--|-5-5---x-5-5---x--|-8-8---x-7-7---x--|
E|------------------|------------------|------------------|------------------|

E|------------------|------------------|------------------|------------------|
B|------------------|------------------|------------------|------------------|
G|-7-7---x-7-7---x--|-9-9---x1010---x--|-7-7---7-7---7-7--|---7-7---7-7-7----|
D|------------------|------------------|------------------|------------------|
A|-5-5---x-5-5---x--|-7-7---x-8-8---x--|-5-5---5-5---5-5--|---5-5---5-5-5----|
E|------------------|------------------|------------------|------------------|

Guitar 2 (distorted):

E|------------------|------------------|------------------|------------------|
B|------------------|------------------|------------------|------------------|
G|-7-7-7---7---7-7--|--10101012121212--|-7-7-7---7---7-7--|--10101012121212--|
D|-7-7-7---7---7-7--|--10101012121212--|-7-7-7---7---7-7--|--10101012121212--|
A|-5-5-5---5---5-5--|---8-8-810101010--|-5-5-5---5---5-5--|---8-8-810101010--|
E|------------------|------------------|------------------|------------------|

E|------------------|------------------|------------------|------------------|
B|------------------|------------------|------------------|------------------|
G|-7-7-7---7---7-7--|--10101012121212--|1010--1010--1212--|--12121214141212--|
D|-7-7-7---7---7-7--|--10101012121212--|------------------|------------------|
A|-5-5-5---5---5-5--|---8-8-810101010--|-8-8---8-8--1010--|--10101012121010--|
E|------------------|------------------|------------------|------------------|

E|------------------|------------------|------------------|------------------|
B|------------------|------------------|------------------|------------------|
G|-7-7-7---7---7-7--|--10101012121212--|-7-7-7---7---7-7--|--10101012121212--|
D|-7-7-7---7---7-7--|--10101012121212--|-7-7-7---7---7-7--|--10101012121212--|
A|-5-5-5---5---5-5--|---8-8-810101010--|-5-5-5---5---5-5--|---8-8-810101010--|
E|------------------|------------------|------------------|------------------|

E|------------------|------------------|------------------|------------------|
B|------------------|------------------|------------------|------------------|
G|-7-7-7---7---7-7--|--10101012121212--|1012--1214--1414--|--14--1414141212--|
D|-7-7-7---7---7-7--|--10101012121212--|------------------|------------------|
A|-5-5-5---5---5-5--|---8-8-810101010--|-810--1012--1212--|--12--1212121010--|
E|------------------|------------------|------------------|------------------|

E|------------------|------------------|------------------|------------------|
B|------------------|------------------|------------------|------------------|
G|1010---x1010---x--|1212---x1414---x--|1010---x1010---x--|1414---x1212---x--|
D|------------------|------------------|------------------|------------------|
A|-8-8---x-8-8---x--|1010---x1212---x--|-8-8---x-8-8---x--|1212---x1010---x--|
E|------------------|------------------|------------------|------------------|

E|------------------|------------------|------------------|------------------|
B|------------------|------------------|------------------|------------------|
G|1010---x1212---x--|1414---x1717---x--|1919--1919--1919--|--1919--191919----|
D|------------------|------------------|------------------|------------------|
A|-8-8---x1010---x--|1212---x1515---x--|1717--1717--1717--|--1717--171717----|
E|------------------|------------------|------------------|------------------|

Guitars 1 & 2 (distorted):

E|------------------|------------------|
B|------------------|------------------|
G|-8-7-6-7-8-7-6----|-7/---------------|
D|---------------0--|-7/---------------|
A|------------------|-5/---------------|
E|------------------|------------------|


*****************************************
* Song   : Nothing's Sacred		*
* Artist : Rx Bandits			*
* Album  : Progress			*
* Year   : 2001				*
*****************************************
    Tabbed by: Bill Streckfus

Tempo = 224 bpm

Intro :
------------------------------------------------------------------------------

Guitars 1 & 2:

E|------------------|
B|--------3---------|
G|--------4---------|
D|------------------|
A|------------------|
E|------------------|

Guitar 1:

E|------------------|------------------|------------------|------------------|
B|---------8-8-6-6--|---------6-6-8-8--|---------8-8-6-6--|---------6-6-8-8--|
G|---------8-8-7-7--|---------7-7-8-8--|---------8-8-7-7--|---------7-7-8-8--|
D|10101010----------|10-9-9-9----------|10101010----------|10-9-9-9----------|
A|------------------|------------------|------------------|------------------|
E|------------------|------------------|------------------|------------------|
  p.m.p.m.p.m.p.m.p.m.p.m.p.m.p.m.p.m.p.m.p.m.p.m.p.m.p.m.p.m.p.m.p.m.p.m.p.m.

E|-1-1--------------|-3-3-----3-3------|-x-x--------------|-x-x-----x-x------|
B|-1-1--------------|-3-3-----3-3------|-4-4--------------|-3-3-----3-3------|
G|-1-1--------------|-3-3-----3-3------|-5-5--------------|-3-3-----3-3------|
D|-3-3--------------|-5-5-----5-5------|-5-5--------------|-3-3-----3-3------|
A|------------------|------------------|------------------|------------------|
E|------------------|------------------|------------------|------------------|

E|-1-1--------------|-3-3-----3-3------|
B|-1-1--------------|-3-3-----3-3------|
G|-1-1--------------|-3-3-----3-3------|
D|-3-3--------------|-5-5-----5-5------|
A|------------------|------------------|
E|------------------|------------------|

Verse :
------------------------------------------------------------------------------

Guitar 1:

E|-x-x--------------|-x-x-----x-x------|-1-1--------------|-3-3-----3-3------|
B|-4-4--------------|-3-3-----3-3------|-1-1--------------|-3-3-----3-3------|
G|-5-5--------------|-3-3-----3-3------|-1-1--------------|-3-3-----3-3------|
D|-5-5--------------|-3-3-----3-3------|-3-3--------------|-5-5-----5-5------|
A|------------------|------------------|------------------|------------------|
E|------------------|------------------|------------------|------------------|

E|-x-x--------------|-x-x-----x-x------|-1-1--------------|-3-3-----3-3------|
B|-4-4--------------|-3-3-----3-3------|-1-1--------------|-3-3-----3-3------|
G|-5-5--------------|-3-3-----3-3------|-1-1-----------33-|-3-3-----3-3------|
D|-5-5--------------|-3-3-----3-3------|-3-3-----------55-|-5-5-----5-5------|
A|------------------|------------------|------------------|------------------|
E|------------------|------------------|------------------|------------------|

E|-x-x--------------|-x-x-----x-x------|-1-1--------------|-3-3-----3-3------|
B|-4-4-----x-x-x----|-3-3-----3-3------|-1-1-----x-x-x----|-3-3-----3-3------|
G|-5-5-----x-x-x----|-3-3-----3-3------|-1-1-----x-x-x----|-3-3-----3-3------|
D|-5-5-----x-x-x----|-3-3-----3-3------|-3-3-----x-x-x----|-5-5-----5-5------|
A|------------------|------------------|------------------|------------------|
E|------------------|------------------|------------------|------------------|

E|-x-x--------------|-x-x-----x-x------|-1-1--------------|-3-3-----3-3------|
B|-4-4-----x-x-x----|-3-3-----3-3------|-1-1-----x-x-x----|-3-3-----3-3------|
G|-5-5-----x-x-x----|-3-3-----3-3------|-1-1-----x-x-x----|-3-3-----3-3------|
D|-5-5-----x-x-x----|-3-3-----3-3------|-3-3-----x-x-x----|-5-5-----5-5------|
A|------------------|------------------|------------------|------------------|
E|------------------|------------------|------------------|------------------|

Guitar 2 (distorted):

E|------------------|
B|------------------|
G|------------------|
D|-5-5-----5-5------|
A|-5-5-----5-5------|
E|-3-3-----3-3------|
(right before pre-chorus)

Pre-Chorus :
------------------------------------------------------------------------------

Guitars 1 & 2 (distorted):

E|------------------|------------------|------------------|------------------|
B|------------------|------------------|------------------|------------------|
G|------------------|------------------|------------------|-----8-------8----|
D|-6---6-------6----|-----8-------8----|----10------10----|-----8-------8----|
A|-6---6-------6----|-----8-------8----|----10------10----|-5-5-5---5-5-5----|
E|-4---4---4-4-4----|-6-6-6---6-6-6----|-8-8-8---8-8-8----|------------------|
           p.m.       p.m.    p.m.       p.m.    p.m.       p.m.    p.m.

E|------------------|------------------|
B|------------------|------------------|
G|------------------|------------------|
D|---------6--------|---------8--------|
A|---------6--------|---------8--------|
E|-4-4---4-4--------|-6-6---6-6--------|
   p.m.p.m.           p.m.p.m.

Guitar 1 (distorted):

E|------------------|------------------|
B|------------------|------------------|
G|------------------|12-12h13p1210-----|
D|10----------------|------------------|
A|10------10--------|------------------|
E|-8----------------|------------------|
          (pinch harmonics) ...

E|------------------|------------------|
B|------------------|------------------|
G|------------------|-8--8h10p8--7-----|
D|10----------------|------------------|
A|10------10--------|------------------|
E|-8----------------|------------------|
          (pinch harmonics) ...

Pre-Chorus 2 :
------------------------------------------------------------------------------

Guitars 1 & 2 (distorted):

E|------------------|------------------|------------------|------------------|
B|------------------|------------------|------------------|------------------|
G|------------------|------------------|------------------|-----8-------8----|
D|-6---6-------6----|-----8-------8----|----10------10----|-----8-------8----|
A|-6---6-------6----|-----8-------8----|----10------10----|-5-5-5---5-5-5----|
E|-4---4---4-4-4----|-6-6-6---6-6-6----|-8-8-8---8-8-8----|------------------|
           p.m.       p.m.    p.m.       p.m.    p.m.       p.m.    p.m.

E|------------------|------------------|------------------|------------------|
B|------------------|------------------|------------------|------------------|
G|------------------|------------------|------------------|-8-8-8-8-8-8-8-8--|
D|---------6--------|---------8--------|----10--10--10----|-8-8-8-8-8-8-8-8--|
A|---------6--------|---------8--------|----10--10--10----|-5-5-5-5-5-5-5-5--|
E|-4-4---4-4--------|-6-6---6-6--------|-8-8-8---8---8----|------------------|
   p.m.p.m.           p.m.p.m.


Chorus :
------------------------------------------------------------------------------

Guitars 1 & 2 (distorted):

E|------------------|------------------|------------------|------------------|
B|------------------|------------------|------------------|------------------|
G|-8---x-8-8---x-8--|-8---x-8-8---x-8--|-8---x-8-x-8-8----|-8---x-8-x-8-8-8--|
D|-8---x-8-8---x-8--|-8---x-8-8---x-8--|-8---x-8-x-8-8----|-8---x-8-x-8-8-8--|
A|-6---x-6-6---x-6--|-6---x-6-6---x-6--|-5---x-5-x-5-5----|-5---x-5-x-5-5-5--|
E|------------------|------------------|------------------|------------------|

E|------------------|------------------|------------------|------------------|
B|------------------|------------------|------------------|------------------|
G|------------------|------------------|------------------|------------------|
D|-----5-5----------|-3-3--------------|-----6-6-----6----|-----8-------8----| x 2
A|-3-3-----5-5-6-6--|-----6-6-5-5-3----|-----6-6-----6----|-----8-------8----|
E|------------------|---------------6p4|-4-4-4-4-4-4-4----|-6-6-6---6-6-6----|
   p.m.p.m.p.m.p.m.p.m.p.m.p.m.p.m.p.m.  p.m.    p.m.       p.m.    p.m.

E|------------------|
B|------------------|
G|------------------|
D|10----------------|
A|10----------------|
E|-8----------------|

Guitar 3 (distorted):

E|------------------|------------------|------------------|------------------|
B|------------------|------------------|------------------|------------------|
G|------------------|------------------|------------------|------------------|
D|------------------|------------------|------------------|------------------|
A|------------------|------------------|------------------|------------------|
E|------------------|------------------|------------------|------------------|


E|------------------|------------------|------------------|------------------|
B|-----4-4----------|------------------|------------------|------------------|
G|-----5-5----------|------------------|------------------|------------------|
D|-----5-5----------|------------------|------------------|------------------| x 2
A|------------------|------------------|------------------|------------------|
E|------------------|------------------|------------------|------------------|

Pre-Chorus 3 :
------------------------------------------------------------------------------

Guitars 1 & 2 (distorted):

E|------------------|------------------|------------------|------------------|
B|------------------|------------------|------------------|------------------|
G|------------------|------------------|------------------|-----8-------8----|
D|-6---6-------6----|-----8-------8----|----10------10----|-----8-------8----|
A|-6---6-------6----|-----8-------8----|----10------10----|-5-5-5---5-5-5----|
E|-4---4---4-4-4----|-6-6-6---6-6-6----|-8-8-8---8-8-8----|------------------|
           p.m.       p.m.    p.m.       p.m.    p.m.       p.m.    p.m.

E|------------------|------------------|------------------|------------------|
B|------------------|------------------|------------------|------------------|
G|------------------|------------------|------------------|------------------|
D|---------6--------|---------8--------|-------10---------|1010-1010--10/----|
A|---------6--------|---------8--------|-------10---------|1010-1010--10/----|
E|-4-4---4-4--------|-6-6---6-6--------|-8-8--8-8---------|-8-8--8-8---8/----|
   p.m.p.m.           p.m.p.m.           p.m.p.m.

E|------------------|------------------|------------------|------------------|
B|------------------|------------------|------------------|------------------|
G|------------------|------------------|------------------|-8--8--8--8--8--8-|
D|---------6--------|---------8--------|-------10---------|-8--8--8--8--8--8-|
A|---------6--------|---------8--------|-------10---------|-5--5--5--5--5--5-|
E|-4-4---4-4--------|-6-6---6-6--------|-8-8--8-8---------|------------------|
   p.m.p.m.           p.m.p.m.           p.m.p.m.           p.m.p.m.p.m.p.m.

E|------------------|------------------|------------------|------------------|
B|------------------|------------------|------------------|------------------|
G|------------------|------------------|------------------|-8-8-8-8-8-8-8-8--|
D|---------6--------|---------8--------|----10--10--10----|-8-8-8-8-8-8-8-8--|
A|---------6--------|---------8--------|----10--10--10----|-5-5-5-5-5-5-5-5--|
E|-4-4---4-4--------|-6-6---6-6--------|-8-8-8---8---8----|------------------|
   p.m.p.m.           p.m.p.m.

Outro :
------------------------------------------------------------------------------

Guitar 1 (distorted):

E|------------------|
B|------------------|
G|------------------|
D|1010--101010--10--|
A|------------------|
E|-8-8---8-8-8---8--|

Guitar 1 (distorted):

E|------------------|------------------|------------------|------------------|
B|------------------|------------------|------------------|------------------|
G|------------------|------------------|------------------|------------------|
D|1010--101010--10--|-8-8---8-8-8---8--|-6-6---6---6-6-6--|---6---6-6-6---6--|
A|------------------|------------------|------------------|------------------|
E|-8-8---8-8-8---8--|-6-6---6-6-6---6--|-4-4---4---4-4-4--|---4---4-4-4---4--|

E|------------------|------------------|------------------|------------------|
B|------------------|------------------|------------------|------------------|
G|------------------|------------------|------------------|------------------|
D|1010--101010--12--|-8-8---8-8-8--10--|-6-6---6---6-6-6--|---6---6-6-6---6--|
A|------------------|------------------|------------------|------------------|
E|-8-8---8-8-8--10--|-6-6---6-6-6---8--|-4-4---4---4-4-4--|---4---4-4-4---4--|

E|------------------|------------------|------------------|------------------|
B|------------------|------------------|------------------|------------------|
G|------------------|------------------|------------------|------------------|
D|1010--101010--10--|1212--121212--12--|13/15/13---131313-|--13--1313/-------|
A|------------------|------------------|------------------|----------/-------|
E|-8-8---8-8-8---8--|1010--101010--10--|11/13/11---111111-|--11--1111/-------|

E|------------------|------------------|------------------|------------------|
B|------------------|------------------|------------------|------------------|
G|------------------|------------------|------------------|------------------|
D|10/---------------|12----------------|13/15/1312--------|13-------9--------|
A|10/---------------|------------------|------------------|------------------|
E|-8/---------------|10----------------|11/13/1110--------|11-------7--------|

E|------------------|
B|------------------|
G|------------------|
D|10----------------|
A|------------------|
E|-8----------------|

Guitar 2 (distorted):

E|------------------|------------------|------------------|------------------|
B|------------------|------------------|------------------|------------------|
G|------------------|------------------|------------------|------------------|
D|1010--101010--10--|-8-8---8-8-8---8--|-6-6---6---6-6-6--|---6---6-6-6---6--|
A|------------------|------------------|------------------|------------------|
E|-8-8---8-8-8---8--|-6-6---6-6-6---6--|-4-4---4---4-4-4--|---4---4-4-4---4--|

E|------------------|------------------|------------------|------------------|
B|------------------|------------------|------------------|------------------|
G|------------------|------------------|------------------|------------------|
D|1010--101010--12--|-8-8---8-8-8--10--|-6-6---6---6-6-6--|---6---6-6-6---6--|
A|------------------|------------------|------------------|------------------|
E|-8-8---8-8-8--10--|-6-6---6-6-6---8--|-4-4---4---4-4-4--|---4---4-4-4---4--|

E|------------------|------------------|------------------|------------------|
B|------------------|------------------|------------------|------------------|
G|------------------|------------------|------------------|------------------|
D|1010--101010--10--|-8-8---8-8-8---8--|-6/8/6-6---6-6-6--|---6---6-6-6---6--|
A|------------------|------------------|------------------|------------------|
E|-8-8---8-8-8---8--|-6-6---6-6-6---6--|-4/6/4-4---4-4-4--|---4---4-4-4---4--|

E|------------------|------------------|------------------|------------------|
B|------------------|------------------|------------------|------------------|
G|------------------|------------------|------------------|------------------|
D|10/---------------|-8----------------|-6/8/6---5--------|-6-------3--------|
A|10/---------------|------------------|------------------|------------------|
E|-8/---------------|-6----------------|-4/6/4---3--------|-4-------1--------|

E|------------------|
B|------------------|
G|------------------|
D|------------------|
A|-3----------------|
E|------------------|

Guitars 1 & 2:

This may have to be played a little differently depending on how your guitar
is cut, but these are the notes

E|--------15--13----|11----------------|--------15--13/---|
B|------1316--15----|13------12----12--|13------16--15/---|
G|----12----17--12--|--12--12--11------|--12--12--17------|
D|--13--------------|----13------13----|----13------------|
A|15----------------|------------------|------------------|
E|------------------|------------------|------------------|

*****************************************
* Song   : Infection			*
* Artist : Rx Bandits			*
* Album  : Progress			*
* Year   : 2001				*
*****************************************
    Tabbed by: Bill Streckfus

Tempo = 180 bpm

Verse :
------------------------------------------------------------------------------

Guitar 1 (distorted):

E|------------------|------------------|------------------|------------------|
B|------------------|------------------|------------------|------------------|
G|------------------|------------------|------------------|------------------|
D|------------------|---4-4-4-4--------|---2-2-2-2-2-2-2--|-2-4-4-4-4--------|
A|-2-2-2-2-2-2-2-2--|-2---------5-5-5--|-5----------------|-----------5-5-5--|
E|------------------|------------------|------------------|------------------|
  p.m.p.m.p.m.p.m.p.m.p.m.p.m.p.m.p.m.p.m.p.m.p.m.p.m.p.m.p.m.p.m.p.m.p.m.p.m.

E|------------------|------------------|------------------|------------------|
B|------------------|------------------|------------------|------------------|
G|------------------|------------------|------------------|------------------|
D|------------------|---4-4-4-4--------|---2-2-2-2-2-2-2--|-2-2-2-2-2-2-2-2--| x 3
A|-5-2-2-2-2-2-2-2--|-2---------5-5-5--|-5-4-4-4-4-4-4-4--|-4-4-4-4-4-4-4-4--|
E|------------------|------------------|------------------|------------------|
  p.m.p.m.p.m.p.m.p.m.p.m.p.m.p.m.p.m.p.m.p.m.p.m.p.m.p.m.p.m.p.m.p.m.p.m.p.m.

Chorus :
------------------------------------------------------------------------------

Guitar 1 (distorted):

E|------------------|------------------|------------------|------------------|
B|------------------|------------------|------------------|------------------|
G|-4-4-4------------|------------------|------------------|------------------|
D|-4-4-4------------|------------------|-5-5-5------------|------------------|
A|-2-2-2------------|------------------|-5-5-5------------|------------------|
E|------------------|------------------|-3-3-3------------|------------------|

E|------------------|------------------|------------------|------------------|
B|------------------|------------------|------------------|------------------|
G|-7----------------|------------------|------------------|------------------|
D|-7----------------|------------------|-4-4-4-4-4-4-4-4--|-4-4-4-4-4-4-4-4--|
A|-5----------------|------------------|-4-4-4-4-4-4-4-4--|-4-4-4-4-4-4-4-4--|
E|------------------|------------------|-2-2-2-2-2-2-2-2--|-2-2-2-2-2-2-2-2--|

E|------------------|------------------|------------------|------------------|
B|------------------|------------------|------------------|------------------|
G|-4---4-4-4-4-4-4--|-4-4-4-4-4-4-4-4--|------------------|------------------|
D|-4---4-4-4-4-4-4--|-4-4-4-4-4-4-4-4--|-5---5-5-5-5-5-5--|-5-5-5-5-5-5-5-5--|
A|-2---2-2-2-2-2-2--|-2-2-2-2-2-2-2-2--|-5---5-5-5-5-5-5--|-5-5-5-5-5-5-5-5--|
E|------------------|------------------|-3---3-3-3-3-3-3--|-3-3-3-3-3-3-3-3--|

E|------------------|------------------|------------------|------------------|
B|------------------|------------------|------------------|------------------|
G|-7---7-7-7-7-7-7--|-7---7-7-7-7-7-7--|------------------|------------------|
D|-7---7-7-7-7-7-7--|-7---7-7-7-7-7-7--|-4---4-4-4-4-4-4--|-4-4-4-4-4-4-4-4--|
A|-5---5-5-5-5-5-5--|-5---5-5-5-5-5-5--|-4---4-4-4-4-4-4--|-4-4-4-4-4-4-4-4--|
E|------------------|------------------|-2---2-2-2-2-2-2--|-2-2-2-2-2-2-2-2--|

Guitar 2 (distorted):

E|------------------|------------------|------------------|------------------|
B|------------------|------------------|------------------|------------------|
G|-4-4-4------------|------------------|------------------|------------------|
D|-4-4-4------------|------------------|-5-5-5------------|------------------|
A|-2-2-2------------|------------------|-5-5-5------------|------------------|
E|------------------|------------------|-3-3-3------------|------------------|

E|------------------|------------------|------------------|------------------|
B|------------------|------------------|------------------|------------------|
G|-7----------------|------------------|1313131313141313--|--131313131413----|
D|-7----------------|------------------|------------------|------------------|
A|-5----------------|------------------|1111111111121111--|--111111111211----|
E|------------------|------------------|------------------|------------------|

E|------------------|------------------|------------------|------------------|
B|------------------|------------------|------------------|------------------|
G|-4---4-4-4-4-4-4--|-4-4-4-4-4-4-4-4--|------------------|------------------|
D|-4---4-4-4-4-4-4--|-4-4-4-4-4-4-4-4--|-5---5-5-5-5-5-5--|-5-5-5-5-5-5-5-5--|
A|-2---2-2-2-2-2-2--|-2-2-2-2-2-2-2-2--|-5---5-5-5-5-5-5--|-5-5-5-5-5-5-5-5--|
E|------------------|------------------|-3---3-3-3-3-3-3--|-3-3-3-3-3-3-3-3--|

E|------------------|------------------|------------------|------------------|
B|------------------|------------------|------------------|------------------|
G|-7---7-7-7-7-7-7--|-7---7-7-7-7-7-7--|1313131313141313--|--131313131413----|
D|-7---7-7-7-7-7-7--|-7---7-7-7-7-7-7--|------------------|------------------|
A|-5---5-5-5-5-5-5--|-5---5-5-5-5-5-5--|1111111111121111--|--111111111211----|
E|------------------|------------------|------------------|------------------|

Verse 2:
------------------------------------------------------------------------------

The guitars here get a little thick...1-3 become barely audible the third time
around.

Guitar 1 (distorted):

E|------------------|------------------|------------------|------------------|
B|------------------|------------------|------------------|------------------|
G|------------------|------------------|------------------|------------------|
D|------------------|---4-4-4-4--------|---2-2-2-2-2-2-2--|-2-4-4-4-4--------|
A|-2-2-2-2-2-2-2-2--|-2---------5-5-5--|-5----------------|-----------5-5-5--|
E|------------------|------------------|------------------|------------------|
  p.m.p.m.p.m.p.m.p.m.p.m.p.m.p.m.p.m.p.m.p.m.p.m.p.m.p.m.p.m.p.m.p.m.p.m.p.m.

E|------------------|------------------|------------------|------------------|
B|------------------|------------------|------------------|------------------|
G|------------------|------------------|------------------|------------------|
D|------------------|---4-4-4-4--------|---2-2-2-2-2-2-2--|-2-2-2-2-2-2-2-2--| x 3
A|-5-2-2-2-2-2-2-2--|-2---------5-5-5--|-5-4-4-4-4-4-4-4--|-4-4-4-4-4-4-4-4--|
E|------------------|------------------|------------------|------------------|
  p.m.p.m.p.m.p.m.p.m.p.m.p.m.p.m.p.m.p.m.p.m.p.m.p.m.p.m.p.m.p.m.p.m.p.m.p.m.

Guitar 2 (distorted):

E|------------------|------------------|------------------|------------------|
B|------------------|------------------|------------------|------------------|
G|------------------|------------------|------------------|---2-2-2-2-4-4-4--|
D|------------------|------------------|------------------|------------------|
A|------------------|------------------|------------------|------------------|
E|------------------|------------------|------------------|------------------|
  							      p.m.p.m.p.m.p.m.

E|------------------|------------------|------------------|------------------|
B|------------------|------------------|------------------|------------------|
G|-4----------------|------------------|------------------|------------------|
D|---4-4-4-4-4-4-4--|-4-4-4-4-4--------|------------------|------------------| x 3
A|------------------|------------------|------------------|------------------|
E|------------------|------------------|------------------|------------------|
  p.m.p.m.p.m.p.m.p.m.p.m.p.m.

Guitar 3 (delay):

E|------------------|------------------|------------------|------------------|
B|15p0-0------14p0--|-0------12p0-0----|10p0-0------12p0--|-0-------8p010----|
G|------------------|------------------|------------------|------------------|
D|------------------|------------------|------------------|------------------|
A|------------------|------------------|------------------|------------------|
E|------------------|------------------|------------------|------------------|

E|------------------|------------------|------------------|------------------|
B|-8p0-0------15p0--|-0------14p0-0----|10p0-0--14p012----|--------12--------|
G|------------------|------------------|------------------|------------------|
D|------------------|------------------|------------------|------------------| x 2
A|------------------|------------------|------------------|------------------|
E|------------------|------------------|------------------|------------------|

Guitar 4 (distorted):

E|------------------|------------------|------------------|------------------|
B|------------------|------------------|------------------|------------------|
G|-7-7-7-7----------|-9-9-9-9----------|11111111----------|11111111-9-9-9-9--|
D|------------------|------------------|------------------|------------------|
A|-5-5-5-5----------|-7-7-7-7----------|-9-9-9-9----------|-9-9-9-9-7-7-7-7--|
E|------------------|------------------|------------------|------------------|

E|------------------|------------------|------------------|------------------|
B|------------------|------------------|------------------|------------------|
G|-7-7-7-7----------|-9-9-9-9----------|-6-6-6-6-6-6-6-6--|-6-6-6-6-6-6-6-6--|
D|------------------|---------/--------|------------------|------------------|
A|-5-5-5-5----------|-7-7-7-7-/--------|-4-4-4-4-4-4-4-4--|-4-4-4-4-4-4-4-4--|
E|------------------|---------/--------|------------------|------------------|

Guitar 5 (distorted):

E|------------------|------------------|------------------|------------------|
B|------------------|------------------|------------------|------------------|
G|-4-4-4-4----------|-6-6-6-6----------|-7-7-7-7----------|-7-7-7-7-6-6-6-6--|
D|------------------|------------------|------------------|------------------|
A|-2-2-2-2----------|-4-4-4-4----------|-5-5-5-5----------|-5-5-5-5-4-4-4-4--|
E|------------------|------------------|------------------|------------------|

E|------------------|------------------|------------------|------------------|
B|------------------|------------------|------------------|------------------|
G|-4-4-4-4----------|-6-6-6-6----------|------------------|------------------|
D|------------------|---------/--------|-7-7-7-7-7-7-7-7--|-7-7-7-7-7-7-7-7--|
A|-2-2-2-2----------|-4-4-4-4-/--------|-7-7-7-7-7-7-7-7--|-7-7-7-7-7-7-7-7--|
E|------------------|---------/--------|-5-5-5-5-5-5-5-5--|-5-5-5-5-5-5-5-5--|

Chorus:
------------------------------------------------------------------------------

Guitar 1 (distorted):

E|------------------|------------------|------------------|------------------|
B|------------------|------------------|------------------|------------------|
G|-4-4-4------------|------------------|------------------|------------------|
D|-4-4-4------------|------------------|-5-5-5------------|------------------|
A|-2-2-2------------|------------------|-5-5-5------------|------------------|
E|------------------|------------------|-3-3-3------------|------------------|

E|------------------|------------------|------------------|------------------|
B|------------------|------------------|------------------|------------------|
G|-7----------------|------------------|------------------|------------------|
D|-7---7-7-7-7-7-7--|-7-7-7-7-7-7-7-7--|-4-4-4-4-4-4-4-4--|-4-4-4-4-4-4-4-4--|
A|-5---5-5-5-5-5-5--|-5-5-5-5-5-5-5-5--|-4-4-4-4-4-4-4-4--|-4-4-4-4-4-4-4-4--|
E|------------------|------------------|-2-2-2-2-2-2-2-2--|-2-2-2-2-2-2-2-2--|
       p.m.p.m.p.m.p.m.p.m.p.m.p.m.p.m.

E|------------------|------------------|------------------|------------------|
B|------------------|------------------|------------------|------------------|
G|-4---4-4-4-4-4-4--|-4-4-4-4-4-4-4-4--|------------------|------------------|
D|-4---4-4-4-4-4-4--|-4-4-4-4-4-4-4-4--|-5---5-5-5-5-5-5--|-5-5-5-5-5-5-5-5--|
A|-2---2-2-2-2-2-2--|-2-2-2-2-2-2-2-2--|-5---5-5-5-5-5-5--|-5-5-5-5-5-5-5-5--|
E|------------------|------------------|-3---3-3-3-3-3-3--|-3-3-3-3-3-3-3-3--|

E|------------------|------------------|------------------|------------------|
B|------------------|------------------|------------------|------------------|
G|-7---7-7-7-7-7-7--|-7---7-7-7-7-7-7--|------------------|------------------|
D|-7---7-7-7-7-7-7--|-7---7-7-7-7-7-7--|-4---4-4-4-4-4-4--|-4-4-4-4-4-4-4-4--|
A|-5---5-5-5-5-5-5--|-5---5-5-5-5-5-5--|-4---4-4-4-4-4-4--|-4-4-4-4-4-4-4-4--|
E|------------------|------------------|-2---2-2-2-2-2-2--|-2-2-2-2-2-2-2-2--|

Guitar 2 (distorted):

E|------------------|------------------|------------------|------------------|
B|------------------|------------------|------------------|------------------|
G|-4-4-4------------|------------------|------------------|------------------|
D|-4-4-4------------|------------------|-5-5-5------------|------------------|
A|-2-2-2------------|------------------|-5-5-5------------|------------------|
E|------------------|------------------|-3-3-3------------|------------------|

E|------------------|------------------|------------------|------------------|
B|------------------|------------------|------------------|------------------|
G|-7----------------|------------------|1313131313141313--|--131313131413----|
D|-7---7-7-7-7-7-7--|-7-7-7-7-7-7-7-7--|------------------|------------------|
A|-5---5-5-5-5-5-5--|-5-5-5-5-5-5-5-5--|1111111111121111--|--111111111211----|
E|------------------|------------------|------------------|------------------|
       p.m.p.m.p.m.p.m.p.m.p.m.p.m.p.m.

E|------------------|------------------|------------------|------------------|
B|------------------|------------------|------------------|------------------|
G|-4---4-4-4-4-4-4--|-4-4-4-4-4-4-4-4--|------------------|------------------|
D|-4---4-4-4-4-4-4--|-4-4-4-4-4-4-4-4--|-5---5-5-5-5-5-5--|-5-5-5-5-5-5-5-5--|
A|-2---2-2-2-2-2-2--|-2-2-2-2-2-2-2-2--|-5---5-5-5-5-5-5--|-5-5-5-5-5-5-5-5--|
E|------------------|------------------|-3---3-3-3-3-3-3--|-3-3-3-3-3-3-3-3--|

E|------------------|------------------|------------------|------------------|
B|------------------|------------------|------------------|------------------|
G|-7---7-7-7-7-7-7--|-7---7-7-7-7-7-7--|1313131313141313--|--131313131413----|
D|-7---7-7-7-7-7-7--|-7---7-7-7-7-7-7--|------------------|------------------|
A|-5---5-5-5-5-5-5--|-5---5-5-5-5-5-5--|1111111111121111--|--111111111211----|
E|------------------|------------------|------------------|------------------|

Bridge:
------------------------------------------------------------------------------

Guitars 1 & 2 (distorted):

E|------------------|------------------|------------------|------------------|
B|------------------|------------------|------------------|------------------|
G|------------------|---------7--------|------------------|------------------|
D|---------5-----5--|---------7--------|---------7-----7--|---------7--------| x 4
A|---------5-----5--|---5-5-5-5-5-5-5--|---------7-----7--|---------7--------|
E|-3-3-3-3-3-333-3--|------------------|-5-5-5-5-5-555-5--|---5-5-5-5-5-5-5--|
   p.m.p.m.  p.m.         p.m.   p.m.    p.m.p.m.  p.m.         p.m.   p.m.

E|------------------|------------------|------------------|------------------|
B|------------------|------------------|------------------|------------------|
G|-4-4-4-------x----|------------------|-7-7---x----------|------------------|
D|-4-4-4-------x-5--|-----5---5-5---5--|-7-7---x-5-5---5--|-4-4---4-5-5---5--|
A|-2-2-2-------x-5--|-----5---5-5---5--|-5-5---x-5-5---5--|-4-4---4-5-5---5--|
E|---------------3--|-----3---3-3---3--|---------3-3---3--|-2-2---2-3-3---3--|

E|------------------|------------------|------------------|------------------|
B|------------------|------------------|------------------|------------------|
G|------------------|------------------|------------------|------------------|
D|-7-7-7-------x-9--|-----9---9-9---9--|-x-5-----x-4------|-x-5------x-7-----|
A|-7-7-7-------x-9--|-----9---9-9---9--|-x-5-----x-4------|-x-5------x-7-----|
E|-5-5-5-------x-7--|-----7---7-7---7--|-x-3-----x-2------|-x-3------x-5-----|

E|------------------|------------------|------------------|------------------|
B|------------------|------------------|------------------|------------------|
G|-4-4-4-------x----|------------------|-7-7---x----------|------------------|
D|-4-4-4-------x-5--|-----5---5-5---5--|-7-7---x-5-5---5--|-4-4---4-5-5---5--|
A|-2-2-2-------x-5--|-----5---5-5---5--|-5-5---x-5-5---5--|-4-4---4-5-5---5--|
E|---------------3--|-----3---3-3---3--|---------3-3---3--|-2-2---2-3-3---3--|

E|------------------|------------------|
B|------------------|------------------|
G|------------------|------------------|
D|-7-7-7-------x-9--|-----9---9-9---9--|
A|-7-7-7-------x-9--|-----9---9-9---9--|
E|-5-5-5-------x-7--|-----7---7-7---7--|

E|------------------|------------------|------------------|------------------|
B|------------------|------------------|------------------|------------------|
G|------------------|------------------|------------------|-------------7----|
D|------------------|------------------|------------------|-------------7----|
A|-4-4-4-4-4-4-4----|-5-5-5-5-4-4-4----|-5-5-5-5-5-5-5-5--|-7-7-7-7-8-8-5----|
E|-2-2-2-2-2-2-2-0--|-3-3-3-3-2-2-2-0--|-3-3-3-3-3-3-3-3--|-5-5-5-5-6-6------|

Chorus:
------------------------------------------------------------------------------

E|------------------|------------------|------------------|------------------|
B|------------------|------------------|------------------|------------------|
G|-4-4-4------------|------------------|------------------|------------------|
D|-4-4-4------------|------------------|------------------|------------------|
A|-2-2-2------------|------------------|------------------|------------------|
E|------------------|------------------|------------------|------------------|

E|------------------|------------------|------------------|------------------|
B|------------------|------------------|------------------|------------------|
G|-7-----7-----7----|---7-----7---7----|11----11----11----|--11----11--11----|
D|-7-----7-----7----|---7-----7---7----|11----11----11----|--11----11--11----|
A|-5-----5-----5----|---5-----5---5----|-9-----9-----9----|---9-----9---9----|
E|------------------|------------------|------------------|------------------|

E|------------------|------------------|------------------|------------------|
B|------------------|------------------|------------------|------------------|
G|-4---4-4-4-4-4-4--|-4-4-4-4-4-4-4-4--|------------------|------------------|
D|-4---4-4-4-4-4-4--|-4-4-4-4-4-4-4-4--|-5---5-5-5-5-5-5--|-5-5-5-5-5-5-5-5--|
A|-2---2-2-2-2-2-2--|-2-2-2-2-2-2-2-2--|-5---5-5-5-5-5-5--|-5-5-5-5-5-5-5-5--|
E|------------------|------------------|-3---3-3-3-3-3-3--|-3-3-3-3-3-3-3-3--|

E|------------------|------------------|------------------|------------------|
B|------------------|------------------|------------------|------------------|
G|-7---7-7-7-7-7-7--|-7---7-7-7-7-7-7--|1111111111111111--|1111111111111111--|
D|-7---7-7-7-7-7-7--|-7---7-7-7-7-7-7--|1111111111111111--|1111111111111111--|
A|-5---5-5-5-5-5-5--|-5---5-5-5-5-5-5--|-9-9-9-9-9-9-9-9--|-9-9-9-9-9-9-9-9--|
E|------------------|------------------|------------------|------------------|

Guitar 2 (distorted):

E|------------------|------------------|------------------|------------------|
B|------------------|------------------|------------------|------------------|
G|-4-4-4------------|------------------|------------------|------------------|
D|-4-4-4------------|------------------|------------------|------------------|
A|-2-2-2------------|------------------|------------------|------------------|
E|------------------|------------------|------------------|------------------|

E|------------------|------------------|------------------|------------------|
B|------------------|------------------|------------------|------------------|
G|-7-----7-----7----|---7-----7---7----|13----13----13----|--13----13--13----|
D|-7-----7-----7----|---7-----7---7----|------------------|------------------|
A|-5-----5-----5----|---5-----5---5----|11----11----11----|--11----11--11----|
E|------------------|------------------|------------------|------------------|

E|------------------|------------------|------------------|------------------|
B|------------------|------------------|------------------|------------------|
G|-4---4-4-4-4-4-4--|-4-4-4-4-4-4-4-4--|------------------|------------------|
D|-4---4-4-4-4-4-4--|-4-4-4-4-4-4-4-4--|-5---5-5-5-5-5-5--|-5-5-5-5-5-5-5-5--|
A|-2---2-2-2-2-2-2--|-2-2-2-2-2-2-2-2--|-5---5-5-5-5-5-5--|-5-5-5-5-5-5-5-5--|
E|------------------|------------------|-3---3-3-3-3-3-3--|-3-3-3-3-3-3-3-3--|

E|------------------|------------------|------------------|------------------|
B|------------------|------------------|------------------|------------------|
G|-7---7-7-7-7-7-7--|-7---7-7-7-7-7-7--|1313131313141313--|--131313131413----|
D|-7---7-7-7-7-7-7--|-7---7-7-7-7-7-7--|------------------|------------------|
A|-5---5-5-5-5-5-5--|-5---5-5-5-5-5-5--|1111111111121111--|--111111111211----|
E|------------------|------------------|------------------|------------------|

Outro:
------------------------------------------------------------------------------

Guitar 1 (distorted):

E|------------------|------------------|------------------|------------------|
B|------------------|------------------|------------------|------------------|
G|-4-4-4-4-4-4-4-4--|-6-6-6-6-7-7-7-7--|11111111-9-9-9-9--|1212121211111111--|
D|------------------|------------------|------------------|------------------|
A|-2-2-2-2-2-2-2-2--|-4-4-4-4-5-5-5-5--|-9-9-9-9-7-7-7-7--|10101010-9-9-9-9--|
E|------------------|------------------|------------------|------------------|

E|------------------|------------------|------------------|------------------|
B|------------------|------------------|------------------|------------------|
G|-9-9-9-9-7-7-7-7--|-7-7-7-7-7-7-7-7--|-6-6-6-6-6-6-6-6--|-6-6-6-6-6-6-6-6--|
D|------------------|------------------|------------------|------------------| x 4
A|-7-7-7-7-5-5-5-5--|-5-5-5-5-5-5-5-5--|-4-4-4-4-4-4-4-4--|-4-4-4-4-4-4-4-4--|
E|------------------|------------------|------------------|------------------|

Guitar 2 (distorted):

E|------------------|------------------|------------------|------------------|
B|------------------|------------------|------------------|------------------|
G|-4-4-4-4-4-4-4-4--|-6-6-6-6-7-7-7-7--|11111111-9-9-9-9--|1212121211111111--|
D|------------------|------------------|------------------|------------------|
A|-2-2-2-2-2-2-2-2--|-4-4-4-4-5-5-5-5--|-9-9-9-9-7-7-7-7--|10101010-9-9-9-9--|
E|------------------|------------------|------------------|------------------|

E|------------------|------------------|------------------|------------------|
B|------------------|------------------|------------------|------------------|
G|-9-9-9-9-7-7-7-7--|-7-7-7-7-7-71111--|-6-6-6-6-6-6-6-6--|-6-6-6-6-6-6-6-6--|
D|------------------|------------------|------------------|------------------| x 4
A|-7-7-7-7-5-5-5-5--|-5-5-5-5-5-5-9-9--|-4-4-4-4-4-4-4-4--|-4-4-4-4-4-4-4-4--|
E|------------------|------------------|------------------|------------------|
Добавлено: 24.07.2013
Другие материалы по этой песне:
  • Аккорды и текст

Страница создана 29.03.2012
http://primanota.ru/rx-bandits/progress-chords.htm
Привет, Гость.
Предлагаем пройти революционный курс по гитаре.
Подарок от PrimaNota.Ru, забирай!