PrimaNota.ru - самый крупный в мире бесплатный архив песенных текстов, аккордов, табулатур и нот


Rx Bandits - Overcome The Recapitulation - таба, видео

Регистрация Запомнить меня
Войти через:  Facebook Google Twitter Vk Yandex Mail.ru

Rx Bandits - Overcome The Recapitulation - таба, видео

Печатать
Просмотров: 57
*****************************************
* Song   : Overcome (The Recapitulation)*
* Artist : Rx Bandits                   *
* Album  : The Resignation              *
* Year   : 2003                         *
*****************************************
    Tabbed by: Bill Streckfus

Tempo = 130 bpm

Intro:
------------------------------------------------------------------------------

Guitar 1 (delay):

Most of these notes are grouped in threes and are played as a triplet.

   Dm                                    F                  C
E|------------------|------------------|------------------|------------------|
B|------------------|------------------|------------------|---------888-6----|
G|------------------|------------------|------------------|------------------|
D|------------------|------------------|------------------|------------------|
A|------------------|------------------|------------------|------------------|
E|------------------|------------------|------------------|------------------|

   Dm                                    F                  C
E|-888--101010101010|------------------|101010121212888888|------------------|
B|-----8------------|------------------|------------------|101010101010---888|
G|------------------|------------------|------------------|------------------|
D|------------------|------------------|------------------|------------------|
A|------------------|------------------|------------------|------------------|
E|------------------|------------------|------------------|------------------|

   Dm                                    F                  C
E|-------5-555------|------------------|--------------888-|-8----------------|
B|-6-----------666--|------------------|------------------|-----888-8--------|
G|----7-------------|------------------|------------------|------------------|
D|------------------|------------------|------------------|------------------|
A|------------------|------------------|------------------|------------------|
E|------------------|------------------|------------------|------------------|

   Dm                                    F                  C
E|------------------|------------------|------------------|------------------|
B|------------------|------------------|------------------|------------------|
G|------------------|------------------|------------------|------------------|
D|-3-------3------2-|-3--3-2--3--------|---------------0--|-2--2-0--2------2-|
A|-5-------5--------|------------------|-3-------3--------|--------------3---|
E|------------------|------------------|-1-------1--------|------------------|
   p.m.    p.m.   p.m.p.m.p.m.p.m.       p.m.    p.m.  p.m.p.m.p.m.p.m.p.m.p.m.

   Dm                                    F                  C
E|------------------|------------------|------------------|------------------|
B|------------------|------------------|------------------|------------------|
G|------------------|------------------|------------------|------------------|
D|-3-------3------2-|-3--3-2--3--------|---------------0--|-2222--0-2------2-|
A|-5-------5--------|----------------x-|-3-------3--------|--------------3---|
E|------------------|----------------x-|-1-------1--------|------------------|
   p.m.    p.m.   p.m.p.m.p.m.p.m.       p.m.    p.m.  p.m.p.m.p.m.p.m.p.m.p.m.

   Dm                                    F                  C
E|------------------|------------------|------------------|------------------|
B|------------------|------------------|------------------|------------------|
G|------------------|------------------|------------------|------------------|
D|-3-------3------2-|-3333-2--3--------|---------------0--|-2222----2------2-|
A|-5-------5--------|----------------x-|-3-------3--------|--------------3---|
E|------------------|----------------x-|-1-------1--------|------------------|
   p.m.    p.m.   p.m.p.m.p.m.p.m.       p.m.    p.m.  p.m.p.m.p.m.p.m.p.m.p.m.

   Dm                                    F                  C
E|------------------|------------------|------------------|----------------x-|
B|------------------|------------------|------------------|----------------x-|
G|------------------|------------------|------------------|----------------x-|
D|-3-------3------2-|-3--3-2--3--------|---------------0--|-2222--0-2--------|
A|-5-------5--------|------------------|-3-------3--------|--------------3---|
E|------------------|------------------|-1-------1--------|------------------|
   p.m.    p.m.   p.m.p.m.p.m.p.m.       p.m.    p.m.  p.m.p.m.p.m.p.m.p.m.p.m.

Verse:
------------------------------------------------------------------------------

Guitar 1 (wah):

   Dm                                    F                  C
E|-----5-5-----5-5--|-----5-5-----5-5--|-----5-5-----5-5--|-----3-3-----3-3--|
B|-----6-6-----6-6--|-----6-6-----6-6--|-----6-6-----6-6--|-----5-5-----5-5--|
G|-----7-7-----7-7--|-----7-7-----7-7--|-----5-5-----5-5--|-----5-5-----5-5--|
D|------------------|------------------|------------------|------------------| x 8
A|------------------|------------------|------------------|------------------|
E|------------------|------------------|------------------|------------------|
       p.m.    p.m.       p.m.    p.m.       p.m.    p.m.       p.m.    p.m.

Tempo = 180 bpm

   Em                                    G                  D
E|-x-x-7-7-x-x-7-7--|-x-x-7-7-x-x-7-7--|-x-x-7-7-x-x-7-7--|-x-x-5-5-x-x-5-5--|
B|-x-x-8-8-x-x-8-8--|-x-x-8-8-x-x-8-8--|-x-x-8-8-x-x-8-8--|-x-x-7-7-x-x-7-7--|
G|-x-x-9-9-x-x-9-9--|-x-x-9-9-x-x-9-9--|-x-x-7-7-x-x-7-7--|-x-x-7-7-x-x-7-7--|
D|------------------|------------------|------------------|------------------| x 12
A|------------------|------------------|------------------|------------------|
E|------------------|------------------|------------------|------------------|
       p.m.    p.m.       p.m.    p.m.       p.m.    p.m.       p.m.    p.m.

Outro:
------------------------------------------------------------------------------

Guitar 1 (delay):

   Em                                    G                  D
E|------------------|------------------|------------------|------------------|
B|------------------|------------------|------------------|------------------|
G|------------------|-------------7h9--|---9-7------------|------------------|
D|-----5---7-9------|-----5---7-9------|---------9-7-7h9--|---9-7---5-7-9----|
A|-7-----7-------7--|---7---7----------|------------------|---------------7--|
E|------------------|------------------|------------------|------------------|
   p.m.p.m.p.m.p.m.p.m.p.m.p.m.p.m.p.m.p.m.p.m.p.m.p.m.p.m.p.m.p.m.p.m.p.m.

   Em                                    G                  D
E|------------------|------------------|------------------|------------------|
B|------------------|------------------|------------------|------------------|
G|------------------|------------------|-9-777------------|------------------|
D|-----5-5-7-9------|-----5---7--9999--|-------9-9-7-7-9--|---9---7-5-5-7-9--|
A|---7-----------7--|---7---7----------|------------------|------------------|
E|------------------|------------------|------------------|------------------|
   p.m.p.m.p.m.p.m.p.m.p.m.p.m.p.m.p.m.p.m.p.m.p.m.p.m.p.m.p.m.p.m.p.m.p.m.

   Em                                    G                  D
E|------------------|------------------|------------------|------------------|
B|------------------|------------------|------------------|------------------|
G|------------------|------------------|-9-----7----------|-7----------------|
D|-------5---5-7-9--|-------5---5-7-9--|-------------7-9--|-------9---7-7-9--|
A|-7----------------|-7--777-----------|------------------|------------------|
E|------------------|------------------|------------------|------------------|
   p.m.p.m.p.m.p.m.p.m.p.m.p.m.p.m.p.m.p.m.p.m.p.m.p.m.p.m.p.m.p.m.p.m.p.m.

   Em                                    G                  D
E|------------------|------------------|------------------|------------------|
B|------------------|------------------|------------------|------------------|
G|------------------|-------7----------|-9-----7----------|------------------|
D|-------5-----7----|-9-----------9----|-------------9----|-7-----5-----4----|
A|-7----------------|------------------|------------------|------------------|
E|------------------|------------------|------------------|------------------|
   p.m.p.m.p.m.p.m.p.m.p.m.p.m.p.m.p.m.p.m.p.m.p.m.p.m.p.m.p.m.p.m.p.m.p.m.


-----------------------------------------------------------------------------
If this tab was helpful and you're as big of a bandits fan as I am, be on the
lookout for more Rx Bandits tabs by yours truly.
Добавлено: 01.09.2013
Другие материалы по этой песне:
  • Аккорды и текст

Страница создана 01.09.2013
http://primanota.ru/rx-bandits/overcome-the-recapitulation-2-chords.htm
Привет, Гость.
Предлагаем пройти революционный курс по гитаре.
Подарок от PrimaNota.Ru, забирай!