PrimaNota.ru - самый крупный в мире бесплатный архив песенных текстов, аккордов, табулатур и нот


Rx Bandits - Only For The Night - текст песни, таба, бас-таба, видео

Регистрация Запомнить меня
Войти через:  Facebook Google Twitter Vk Yandex Mail.ru

Rx Bandits - Only For The Night - текст песни, таба, бас-таба, видео

Печатать
Просмотров: 82
----------------------------------------------------------------------------
                        Only for the night - Rx Bandits
----------------------------------------------------------------------------
Tabbed by:Andy Culbreath
Email:cheeseomelet@gmail.com

Tuning:Standard
Intro/Guitar 1
e|--------2-2--2-2-2-|----------------------------------------------------------------|
B|--------3-3--3-3-3-|-----------------------------------------55------77-55-3--------|
G|--------4-4--4-4-4-|-66----66----77----77----66----66-------------66---------66x----|
D|--------4-4--4-4-4-|----77----77----77----77----77----77--77----7---------------77x-|
A|--9-----2-2--2-2-2-|----------------------------------------------------------------|
E|----9-2-2-2--2-2-2-|----------------------------------------------------------------|
Guitar 2
e|--------7-7--7-7-7-|------------------------------------------------------------------------|
B|--------7-7--7-7-7-|------------------------------------------------------------------------|
G|--------7-7--7-7-7-|------------------------------------------------------------------------|
D|--------9-9--9-9-9-|----------------------------------------------------44-22-00------------|
A|--9-9-9-9-9--9-9-9-|-44----44----55----55----44----44-----44---44----55----------44---------|
E|--------7-7--7-7-7-|----55----55----55----55----55----55-----55---55----------------55-44-0-|
Verse/Guitar 1
   F#m               Bm               F#m              C#m              
e|--2-2-x-x-2-2-x-x--2-2-x-x-2-2-x-x--2-2-x-x-2-2-x-x--4-4-x-x-4-4-x-x-|
B|--2-2-x-x-2-2-x-x--3-3-x-x-3-3-x-x--2-2-x-x-2-2-x-x--5-5-x-x-5-5-x-x-|
G|--2-2-x-x-2-2-x-x--4-4-x-x-4-4-x-x--2-2-x-x-2-2-x-x--6-6-x-x-6-6-x-x-|
D|--4-4-x-x-4-4-x-x--4-4-x-x-4-4-x-x--4-4-x-x-4-4-x-x--6-6-x-x-6-6-x-x-|
A|--4-4-x-x-4-4-x-x--2-2-x-x-2-2-x-x--4-4-x-x-4-4-x-x--4-4-x-x-4-4-x-x-|
E|--2-2-x-x-2-2-x-x--2-2-x-x-2-2-x-x--2-2-x-x-2-2-x-x--4-4-x-x-4-4-x-x-|
    D                A       
e|-------------------5-5-x-x-5-5-x-x---|
B|--7-7-x-x-7-7-x-x--5-5-x-x-5-5-x-x---|
G|--7-7-x-x-7-7-x-x--6-6-x-x-6-6-x-x---|
D|--7-7-x-x-7-7-x-x--7-7-x-x-7-7-x-x---|
A|--5-5-x-x-5-5-x-x--7-7-x-x-7-7-x-x---|
E|-------------------5-5-x-x-5-5-x-x---|

Guitar 2
e|---------------------------------------------------------------------------|
B|--------------------------------------55----55-------77-55-33--------------|
G|--66----66----77----77----66----66----------------66----------66-----------|
D|-----77----77----77----77----77----77----77----77----------------77-66-44--|
A|---------------------------------------------------------------------------|
E|---------------------------------------------------------------------------|
Chorus
    E           F#m         E           Bm7     
e|--------------2-2-2-2-2---------------2-2-2-2-2---------------2-2-2-2-2---|
B|--------------2-2-2-2-2---------------3-3-3-3-3---------------2-2-2-2-2---|
G|--1-1-1-1-1---2-2-2-2-2---1-1-1-1-1---2-2-2-2-2---1-1-1-1-1---2-2-2-2-2---|
D|--2-2-2-2-2---4-4-4-4-4---2-2-2-2-2---4-4-4-4-4---2-2-2-2-2---4-4-4-4-4---|
A|--2-2-2-2-2---4-4-4-4-4---2-2-2-2-2---2-2-2-2-2---2-2-2-2-2---4-4-4-4-4---|
E|--------------2-2-2-2-2---------------2-2-2-2-2---------------2-2-2-2-2---|
    D           E
e|--2-2-2-2-2--------------|
B|--3-3-3-3-3--------------|
G|--2-2-2-2-2---1-1-1-1-1--|
D|--------------2-2-2-2-2--|
A|--------------2-2-2-2-2--|
E|-------------------------|
Bridge
Guitar 1
    F#m              E                F#m
e|--2-2-x-x-2-2-x-x------x-x-----x-x--2-2-x-x-2-2-x-x--|
B|--2-2-x-x-2-2-x-x------x-x-----x-x--2-2-x-x-2-2-x-x--|
G|--2-2-x-x-2-2-x-x--1-1-x-x-1-1-x-x--2-2-x-x-2-2-x-x--|
D|--4-4-x-x-4-4-x-x--2-2-x-x-2-2-x-x--4-4-x-x-4-4-x-x--|
A|--4-4-x-x-4-4-x-x--2-2-x-x-2-2-x-x--4-4-x-x-4-4-x-x--|
E|--2-2-x-x-2-2-x-x------x-x-----x-x--2-2-x-x-2-2-x-x--|
Guitar 2
e|-------------------------------------|
B|-------------------------------------|
G|-------------------------------------|
D|-----------------00------------------|
A|-----00----00-22----22-00----00------|
E|--22----22----------------22----22---|

Breakdown
                      C#m       Em        Ebm       D
e|--------------------4-4-4-4---7-7-7-7---6-6-6-6---5-5-5-5---|
B|--------------------5-5-5-5---8-8-8-8---7-7-7-7---7-7-7-7---|
G|--------------------6-6-6-6---9-9-9-9---8-8-8-8---7-7-7-7---|
D|--------------------6-6-6-6---9-9-9-9---8-8-8-8---7-7-7-7---|
A|--------------------4-4-4-4---7-7-7-7---6-6-6-6---5-5-5-5---|
E|--------------------4-4-4-4---7-7-7-7---6-6-6-6---5-5-5-5---|

Solo
e|-----------5---9-4------------------9-5-2-0-4-----5----9------------9^-7---9--------2-2-2-2-2-|
B|--/7-9-5-----7-------5-7-10-7-9-5--------------2~----7---9-5---10-7------5---9-5-0--2-2-2-2-2-|
G|---------6---------6--------------6--------------------------6----------------------3-3-3-3-3-|
D|------------------------------------------------------------------------------------4-4-4-4-4-|
A|------------------------------------------------------------------------------------4-4-4-4-4-|
E|------------------------------------------------------------------------------------2-2-2-2-2-|



Intro x2
verse x2
Chorus
Bridge x4
Verse x4
Chorus
Bridge x4
First part of intro
Breakdown
Chorus
Bridge x4
Solo

| /  slide up
| \  slide down
| h  hammer-on
| p  pull-off
| ~  vibrato
| +  harmonic
| x  Mute note
============================================================================
Добавлено: 09.08.2013
Другие материалы по этой песне:
  • Аккорды и текст

Страница создана 31.07.2012
http://primanota.ru/rx-bandits/only-for-the-night-chords.htm
Привет, Гость.
Предлагаем пройти революционный курс по гитаре.
Подарок от PrimaNota.Ru, забирай!