PrimaNota.ru - самый крупный в мире бесплатный архив песенных текстов, аккордов, табулатур и нот


Rx Bandits - One Million Miles An Hour Fast Asleepa Million Miles An Hour Fast Asleep - таба

Регистрация Запомнить меня
Войти через:  Facebook Google Twitter Vk Yandex Mail.ru

Rx Bandits - One Million Miles An Hour Fast Asleepa Million Miles An Hour Fast Asleep - таба

Печатать
Просмотров: 71
A million Miles an hour, fast asleep

Intro
Guitar 1
e-------------------------------------------------|
B-------------------------------------------------|
G----------------6------8----------------6------8-|
D----5---5h7p5---------------5---5-6-7------------| 
A--7---7-------------------7---7------------------|
E--------------5---55/7----------------5---55/7---|

Guitar 2
e--7------------------------7---------------------------|
B----8-0-7-8-0-5-0-3-5-0------8-0-7-8-0-5-0-3-5-----3-5-|
G------------------------4----------------------2-4-----| 
D-------------------------------------------------------|
A-------------------------------------------------------|
E-------------------------------------------------------|

Bridge 1
e---9-------|
B--10-------|
G--11-(x64)-|
D--11-------|
A---9-------|
E---9-------|

Verse 1
  Fm                      G#                             C
e---------------------------------------------------------------------|
B--------99--------------------------99-------------------------------|
G----------1010---------55-------------1010---------55---------99-----|
D----1010------(x2)-------66-----1010------(x2)-------66---------1010-|
A--88-----------------66-------88-----------------66-------1010-------|
E-------------------44--------------------------44-------88-----------|

Verse 2
  Fm                      G#                             C
e--------88------------------------88-------------------------------|---------------------------------|
B----------99---------44-------------99-----------44---------88-----|-14-11-11-14-11-11-14-11-11------|
G-----------------------55--------------------------55---------99---|---------------------------------|
D----1010----(x2)--------------1010----(x2)-------------------------|----------------------------(x2)-|
A--88---------------66-------88-----------------66-------1010-------|---------------------------------|
E-----------------44--------------------------44-------88-----------|---------------------------------|

Fill 1
Guitar 1
e--14-11-11-14-11-11-14-11-11-14-11-|------------------------------|
B-----------------------------------|-5-4-5-6-7-6-7-8-9-8-9-10-11--|
G-----------------------------------|------------------------------|
D-----------------------------------|------------------------------|
A-----------------------------------|------------------------------|
E-----------------------------------|------------------------------|

Guitar 2
e--14-11-11-14-11-11-14-11-11-14-11-|-7-6-7-8-9-8-9-10-11-12-14-10-15-|
B-----------------------------------|---------------------------------|
G-----------------------------------|---------------------------------|
D-----------------------------------|---------------------------------|
A-----------------------------------|---------------------------------|
E-----------------------------------|---------------------------------|

Bridge 2
   Em   G            B            Em           A       
e--0-0--3-3-x-3-3-3--2-2-2-x-2-2--0-0-0-0-0-0--5-5-x-5-5--3-3-3-x-3--2-2-x-2--0-0-0-0-|
B--0-0--3-3-x-3-3-3--4-4-4-x-4-4--0-0-0-0-0-0--5-5-x-5-5--3-3-3-x-3--4-4-x-4--0-0-0-0-|
G--0-0--4-4-x-4-4-4--4-4-4-x-4-4--0-0-0-0-0-0--6-6-x-6-6--4-4-4-x-4--4-4-x-4--0-0-0-0-|
D--2-2--5-5-x-5-5-5--4-4-4-x-4-4--2-2-2-2-x-2--7-7-x-7-7--5-5-5-x-5--4-4-x-4--2-2-2-2-|
A--2-2--5-5-x-5-5-5--2-2-2-x-2-2--2-2-2-2-x-2--7-7-x-7-7--5-5-5-x-5--2-2-x-2--2-2-2-2-|
E-------3-3-x-3-3-3--2-2-2-x-2-2--------------------------3-3-3-x-3--2-2-x-2----------|
Vary these chords.

Order:
Intro x6
Bridge 1
Verse 1
Verse 2 x2
Fill 1 x2
Intro x6
Bridge
Verse 2 x2
Fill 1
Bridge 2


Добавлено: 22.10.2013
Другие материалы по этой песне:
  • Аккорды и текст

Страница создана 22.10.2013
http://primanota.ru/rx-bandits/one-million-miles-an-hour-fast-asleepa-million-miles-an-hour-fast-asleep-chords.htm
Привет, Гость.
Предлагаем пройти революционный курс по гитаре.
Подарок от PrimaNota.Ru, забирай!