PrimaNota.ru - самый крупный в мире бесплатный архив песенных текстов, аккордов, табулатур и нот


Rx Bandits - One Million Miles An Hour, Fast Asleep - текст песни, бас-таба, видео

Регистрация Запомнить меня
Войти через:  Facebook Google Twitter Vk Yandex Mail.ru

Rx Bandits - One Million Miles An Hour, Fast Asleep - текст песни, бас-таба, видео

Печатать
Просмотров: 122
Уроки эстрадного вокала в Санкт-Петербурге
Rx Bandits
...And the Battle Baegun
"One Million Miles An Hour, Fast Asleep"

Intro:
G-----------------|
D-----------------|
A--7---7--------7-|
E----------0~-----|

Verse:
G---------------------------------------------|
D--------9-7------------------9-7-------------|
A-7-10-7-----7---------7-10-7-----7-----------|
E--------------5555-77--------------5555-7777-| (a bunch of times)


Chorus:
G----------------------|
D------12>-11>---------|
A-9>>----------12>-11>-|
E----------------------| (x 2)

G-----------------|
D-----------------|
A-8>>----8>>------|
E-----4>----4>-8>-| (x2)

play intro
play verse
play chorus
Play intro

Bridge intro
G---------------------7-9-10-|
D-------5-7-5---5-7-9--------|
A-7-5-7-------7--------------|
E----------------------------|

Bridge
G-------------------------------------------------------------------------|
D-------------------------------------------------------------------------|
A-7---7---7-5------------------2---2-2---7-7------7777---------2-22--7-77-|
E---7---------7---3-33--33-5-----3------------5-5------5--3-33------------|
play this twice (this is the entire progression, so take it slow/jam reggae)

Bridge part 2
G------------------------|
D------------------9/7/5-|
A-7---7777---7-7---------|
E---7--------------------| Just play a bunch of variations around Em
Добавлено: 12.10.2013
Другие материалы по этой песне:
  • Аккорды и текст

Страница создана 25.03.2012
http://primanota.ru/rx-bandits/one-million-miles-an-hour-fast-asleep-chords.htm
Привет, Гость.
Предлагаем пройти революционный курс по гитаре.
Подарок от PrimaNota.Ru, забирай!