PrimaNota.ru - самый крупный в мире бесплатный архив песенных текстов, аккордов, табулатур и нот


Rx Bandits - On A Lonely Screen - текст песни, таба, видео

Регистрация Запомнить меня
Войти через:  Facebook Google Twitter Vk Yandex Mail.ru

Rx Bandits - On A Lonely Screen - текст песни, таба, видео

Печатать
Просмотров: 99
-------------------------------------------------------------------------------
			     SONG NAME - Band Name
-------------------------------------------------------------------------------
Tabbed by:Andy Culbreath
Email:cheeseomelet@gmail.com

Tuning:Standard

Verse 1
Guitar 1
e|--7-7--5-5-5--7-7--5-5-5--7-7--5-5-5--x-x-x-x-x-x--5-5-|
B|--8-8--5-5-5--8-8--5-5-5--8-8--5-5-5--x-x-x-x-x-x--5-5-|
G|--9-9--5-5-5--9-9--5-5-5--9-9--5-5-5--x-x-x-x-x-x--5-5-|  
D|--9-9--7-7-7--9-9--7-7-7--9-9--7-7-7--x-x-x-x-x-x--7-7-|
A|--7-7--7-7-7--7-7--7-7-7--7-7--7-7-7--x-x-x-x-x-x--7-7-|
E|--7-7--5-5-5--7-7--5-5-5--7-7--5-5-5--x-x-x-x-x-x--5-5-|

 
Guitar 2                            around :27...
e|--7h8----\5h7-5h7-5----3h5-3--|--------------------------7-7-7-7-|
B|--8-8----\5-5-5-5-5----5-5-5--|--4-4-4-4-7-7-7-7-8-8-8-8---------|
G|------------------------------|----------------------------------|
D|------------------------------|----------------------------------|
A|------------------------------|----------------------------------|
E|------------------------------|----------------------------------|
 Just mess around with those chords.

Bridge (:33)
Guitar 1
e|--8--8--8-x---8--8------|--5-5-x-5-5-5-x-7-7-x-5-5-5--5-5-x-5-5-5--7-7-x-5-5-5-|
B|-10-10-10-x--10-10------|--6-6-x-5-5-5-x-9-9-x-5-5-5--6-6-x-5-5-5--8-8-x-5-5-5-|
G|-10-10-10-x--10-10------|--7-7-x-5-5-5-x-9-9-x-5-5-5--7-7-x-5-5-5--9-9-x-5-5-5-|
D|-10-10-10-x--10-10-(x4)-|--7-7-x-7-7-7-x-9-9-x-7-7-7--7-7-x-7-7-7--9-9-x-7-7-7-|
A|--8--8--8-x---8--8------|--5-5-x-7-7-7-x-7-7-x-7-7-7--5-5-x-7-7-7--7-7-x-7-7-7-|
E|--8--8--8-x---8--8------|--5-5-x-5-5-5-x-7-7-x-5-5-5--5-5-x-5-5-5--7-7-x-5-5-5-|
Guitar 2
e|----------------------|---------------------------------------|
B|--------88------------|---------------------------------------|
G|-----55----55---------|---------------------------------------|
D|-----------------(x4)-|------------------7-7-------------(x2)-|
A|--88------------------|------3-5-7-7-5-3-----3-5-7-7-5-3------|
E|----------------------|--5-5----------------------------------|

Verse 2 (1:27)
e|--5-5-5-5--5-5-5-5---8--8--8--8--7-7-7-7--|---8--8--8--8---8--8--8--8--7-7-7-7--7-7-7-7-|
B|--5-5-5-5--6-6-6-6---8--8--8--8--9-9-9-9--|--10-10-10-10---8--8--8--8--7-7-7-7--9-9-9-9-|
G|--5-5-5-5--7-7-7-7---9--9--9--9--9-9-9-9--|--10-10-10-10---9--9--9--9--8-8-8-8--7-7-7-7-|
D|--7-7-7-7--7-7-7-7--10-10-10-10--9-9-9-9--|--10-10-10-10--10-10-10-10--9-9-9-9--9-9-9-9-|
A|--7-7-7-7--5-5-5-5--10-10-10-10--7-7-7-7--|---8--8--8--8--10-10-10-10--9-9-9-9--7-7-7-7-|
E|--5-5-5-5--5-5-5-5---8--8--8--8--7-7-7-7--|---8--8--8--8---8--8--8--8--7-7-7-7----------|

outro
e-------|
B-----1-|
G----2--|
D---2---|
A--0----|
E-------|

order:
verse 1 x8
Bridge
verse 1 x4
verse 2 x6
outro

| /  slide up
| \  slide down
| h  hammer-on
| p  pull-off
| ~  vibrato
| +  harmonic
| x  Mute note
===============================================================================
Добавлено: 21.11.2013
Другие материалы по этой песне:
  • Аккорды и текст

Страница создана 21.06.2012
http://primanota.ru/rx-bandits/on-a-lonely-screen-chords.htm
Привет, Гость.
Предлагаем пройти революционный курс по гитаре.
Подарок от PrimaNota.Ru, забирай!