PrimaNota.ru - самый крупный в мире бесплатный архив песенных текстов, аккордов, табулатур и нот


Rx Bandits - Nothings Sacred - таба, видео

Регистрация Запомнить меня
Войти через:  Facebook Google Twitter Vk Yandex Mail.ru

Rx Bandits - Nothings Sacred - таба, видео

Печатать
Просмотров: 82
Уроки эстрадного вокала в Санкт-Петербурге
*********************************
* Song   : Nothing's Sacred	*
* Artist : Rx Bandits		*
* Album  : Progress		*
* Year   : 2001			*
*********************************
    Tabbed by: Bill Streckfus

Tempo = 224 bpm

Intro :
------------------------------------------------------------------------------

Guitars 1 & 2:

   Bm
E|------------------|
B|--------3---------|
G|--------4---------|
D|------------------|
A|------------------|
E|------------------|

Guitar 1:

   Cm                   Bdim             Cm                   Bdim
E|------------------|------------------|------------------|------------------|
B|---------8-8-6-6--|---------6-6-8-8--|---------8-8-6-6--|---------6-6-8-8--|
G|---------8-8-7-7--|---------7-7-8-8--|---------8-8-7-7--|---------7-7-8-8--|
D|10101010----------|10-9-9-9----------|10101010----------|10-9-9-9----------|
A|------------------|------------------|------------------|------------------|
E|------------------|------------------|------------------|------------------|
  p.m.p.m.p.m.p.m.p.m.p.m.p.m.p.m.p.m.p.m.p.m.p.m.p.m.p.m.p.m.p.m.p.m.p.m.p.m.

   Fm                 Gm                 Cm                 Bb
E|-1-1--------------|-3-3-----3-3------|-x-x--------------|-x-x-----x-x------|
B|-1-1--------------|-3-3-----3-3------|-4-4--------------|-3-3-----3-3------|
G|-1-1--------------|-3-3-----3-3------|-5-5--------------|-3-3-----3-3------|
D|-3-3--------------|-5-5-----5-5------|-5-5--------------|-3-3-----3-3------|
A|------------------|------------------|------------------|------------------|
E|------------------|------------------|------------------|------------------|

   Fm                 Gm
E|-1-1--------------|-3-3-----3-3------|
B|-1-1--------------|-3-3-----3-3------|
G|-1-1--------------|-3-3-----3-3------|
D|-3-3--------------|-5-5-----5-5------|
A|------------------|------------------|
E|------------------|------------------|

Verse :
------------------------------------------------------------------------------

Guitar 1:

   Cm                 Bb                 Fm                 Gm
E|-x-x--------------|-x-x-----x-x------|-1-1--------------|-3-3-----3-3------|
B|-4-4--------------|-3-3-----3-3------|-1-1--------------|-3-3-----3-3------|
G|-5-5--------------|-3-3-----3-3------|-1-1--------------|-3-3-----3-3------|
D|-5-5--------------|-3-3-----3-3------|-3-3--------------|-5-5-----5-5------|
A|------------------|------------------|------------------|------------------|
E|------------------|------------------|------------------|------------------|

   Cm                 Bb                 Fm                 Gm
E|-x-x--------------|-x-x-----x-x------|-1-1--------------|-3-3-----3-3------|
B|-4-4--------------|-3-3-----3-3------|-1-1--------------|-3-3-----3-3------|
G|-5-5--------------|-3-3-----3-3------|-1-1-----------33-|-3-3-----3-3------|
D|-5-5--------------|-3-3-----3-3------|-3-3-----------55-|-5-5-----5-5------|
A|------------------|------------------|------------------|------------------|
E|------------------|------------------|------------------|------------------|

   Cm                 Bb                 Fm                 Gm
E|-x-x--------------|-x-x-----x-x------|-1-1--------------|-3-3-----3-3------|
B|-4-4-----x-x-x----|-3-3-----3-3------|-1-1-----x-x-x----|-3-3-----3-3------|
G|-5-5-----x-x-x----|-3-3-----3-3------|-1-1-----x-x-x----|-3-3-----3-3------|
D|-5-5-----x-x-x----|-3-3-----3-3------|-3-3-----x-x-x----|-5-5-----5-5------|
A|------------------|------------------|------------------|------------------|
E|------------------|------------------|------------------|------------------|

   Cm                 Bb                 Fm                 Gm
E|-x-x--------------|-x-x-----x-x------|-1-1--------------|-3-3-----3-3------|
B|-4-4-----x-x-x----|-3-3-----3-3------|-1-1-----x-x-x----|-3-3-----3-3------|
G|-5-5-----x-x-x----|-3-3-----3-3------|-1-1-----x-x-x----|-3-3-----3-3------|
D|-5-5-----x-x-x----|-3-3-----3-3------|-3-3-----x-x-x----|-5-5-----5-5------|
A|------------------|------------------|------------------|------------------|
E|------------------|------------------|------------------|------------------|

Guitar 2 (distorted):

   Gm
E|------------------|
B|------------------|
G|------------------|
D|-5-5-----5-5------|
A|-5-5-----5-5------|
E|-3-3-----3-3------|
(right before pre-chorus)

Pre-Chorus :
------------------------------------------------------------------------------

Guitars 1 & 2 (distorted):

   Ab5                Bb5                C5                 Eb7/D
E|------------------|------------------|------------------|------------------|
B|------------------|------------------|------------------|------------------|
G|------------------|------------------|------------------|-----8-------8----|
D|-6---6-------6----|-----8-------8----|----10------10----|-----8-------8----|
A|-6---6-------6----|-----8-------8----|----10------10----|-5-5-5---5-5-5----|
E|-4---4---4-4-4----|-6-6-6---6-6-6----|-8-8-8---8-8-8----|------------------|
           p.m.       p.m.    p.m.       p.m.    p.m.       p.m.    p.m.

   Ab5                Bb5
E|------------------|------------------|
B|------------------|------------------|
G|------------------|------------------|
D|---------6--------|---------8--------|
A|---------6--------|---------8--------|
E|-4-4---4-4--------|-6-6---6-6--------|
   p.m.p.m.           p.m.p.m.

Guitar 1 (distorted):

   Cm
E|------------------|------------------|
B|------------------|------------------|
G|------------------|12-12h13p1210-----|
D|10----------------|------------------|
A|10------10--------|------------------|
E|-8----------------|------------------|
          (pinch harmonics) ...

E|------------------|------------------|
B|------------------|------------------|
G|------------------|-8--8h10p8--7-----|
D|10----------------|------------------|
A|10------10--------|------------------|
E|-8----------------|------------------|
          (pinch harmonics) ...

Pre-Chorus 2 :
------------------------------------------------------------------------------

Guitars 1 & 2 (distorted):

   Ab5                Bb5                C5                 Eb7/D
E|------------------|------------------|------------------|------------------|
B|------------------|------------------|------------------|------------------|
G|------------------|------------------|------------------|-----8-------8----|
D|-6---6-------6----|-----8-------8----|----10------10----|-----8-------8----|
A|-6---6-------6----|-----8-------8----|----10------10----|-5-5-5---5-5-5----|
E|-4---4---4-4-4----|-6-6-6---6-6-6----|-8-8-8---8-8-8----|------------------|
           p.m.       p.m.    p.m.       p.m.    p.m.       p.m.    p.m.

   Ab5                Bb5                C5                 Eb7/D
E|------------------|------------------|------------------|------------------|
B|------------------|------------------|------------------|------------------|
G|------------------|------------------|------------------|-8-8-8-8-8-8-8-8--|
D|---------6--------|---------8--------|----10--10--10----|-8-8-8-8-8-8-8-8--|
A|---------6--------|---------8--------|----10--10--10----|-5-5-5-5-5-5-5-5--|
E|-4-4---4-4--------|-6-6---6-6--------|-8-8-8---8---8----|------------------|
   p.m.p.m.           p.m.p.m.


Chorus :
------------------------------------------------------------------------------

Guitars 1 & 2 (distorted):

   Eb5                                   Eb7/D
E|------------------|------------------|------------------|------------------|
B|------------------|------------------|------------------|------------------|
G|-8---x-8-8---x-8--|-8---x-8-8---x-8--|-8---x-8-x-8-8----|-8---x-8-x-8-8-8--|
D|-8---x-8-8---x-8--|-8---x-8-8---x-8--|-8---x-8-x-8-8----|-8---x-8-x-8-8-8--|
A|-6---x-6-6---x-6--|-6---x-6-6---x-6--|-5---x-5-x-5-5----|-5---x-5-x-5-5-5--|
E|------------------|------------------|------------------|------------------|

   Cm                                    Ab5                Bb5
E|------------------|------------------|------------------|------------------|
B|------------------|------------------|------------------|------------------|
G|------------------|------------------|------------------|------------------|
D|-----5-5----------|-3-3--------------|-----6-6-----6----|-----8-------8----| x 2
A|-3-3-----5-5-6-6--|-----6-6-5-5-3----|-----6-6-----6----|-----8-------8----|
E|------------------|---------------6p4|-4-4-4-4-4-4-4----|-6-6-6---6-6-6----|
   p.m.p.m.p.m.p.m.p.m.p.m.p.m.p.m.p.m.  p.m.    p.m.       p.m.    p.m.

   C5
E|------------------|
B|------------------|
G|------------------|
D|10----------------|
A|10----------------|
E|-8----------------|

Guitar 3 (distorted):

   Eb5                                   Eb7/D
E|------------------|------------------|------------------|------------------|
B|------------------|------------------|------------------|------------------|
G|------------------|------------------|------------------|------------------|
D|------------------|------------------|------------------|------------------|
A|------------------|------------------|------------------|------------------|
E|------------------|------------------|------------------|------------------|

   Cm                                    Ab5                Bb5
E|------------------|------------------|------------------|------------------|
B|-----4-4----------|------------------|------------------|------------------|
G|-----5-5----------|------------------|------------------|------------------|
D|-----5-5----------|------------------|------------------|------------------| x 2
A|------------------|------------------|------------------|------------------|
E|------------------|------------------|------------------|------------------|

Pre-Chorus 3 :
------------------------------------------------------------------------------

Guitars 1 & 2 (distorted):

   Ab5                Bb5                C5                 Eb7/D
E|------------------|------------------|------------------|------------------|
B|------------------|------------------|------------------|------------------|
G|------------------|------------------|------------------|-----8-------8----|
D|-6---6-------6----|-----8-------8----|----10------10----|-----8-------8----|
A|-6---6-------6----|-----8-------8----|----10------10----|-5-5-5---5-5-5----|
E|-4---4---4-4-4----|-6-6-6---6-6-6----|-8-8-8---8-8-8----|------------------|
           p.m.       p.m.    p.m.       p.m.    p.m.       p.m.    p.m.

   Ab5                Bb5                C5                 
E|------------------|------------------|------------------|------------------|
B|------------------|------------------|------------------|------------------|
G|------------------|------------------|------------------|------------------|
D|---------6--------|---------8--------|-------10---------|1010-1010--10/----|
A|---------6--------|---------8--------|-------10---------|1010-1010--10/----|
E|-4-4---4-4--------|-6-6---6-6--------|-8-8--8-8---------|-8-8--8-8---8/----|
   p.m.p.m.           p.m.p.m.           p.m.p.m.

   Ab5                Bb5                C5                 Eb7/D
E|------------------|------------------|------------------|------------------|
B|------------------|------------------|------------------|------------------|
G|------------------|------------------|------------------|-8--8--8--8--8--8-|
D|---------6--------|---------8--------|-------10---------|-8--8--8--8--8--8-|
A|---------6--------|---------8--------|-------10---------|-5--5--5--5--5--5-|
E|-4-4---4-4--------|-6-6---6-6--------|-8-8--8-8---------|------------------|
   p.m.p.m.           p.m.p.m.           p.m.p.m.           p.m.p.m.p.m.p.m.

   Ab5                Bb5                C5                 Eb7/D
E|------------------|------------------|------------------|------------------|
B|------------------|------------------|------------------|------------------|
G|------------------|------------------|------------------|-8-8-8-8-8-8-8-8--|
D|---------6--------|---------8--------|----10--10--10----|-8-8-8-8-8-8-8-8--|
A|---------6--------|---------8--------|----10--10--10----|-5-5-5-5-5-5-5-5--|
E|-4-4---4-4--------|-6-6---6-6--------|-8-8-8---8---8----|------------------|
   p.m.p.m.           p.m.p.m.

Outro :
------------------------------------------------------------------------------

Guitar 1 (distorted):

   Cm
E|------------------|
B|------------------|
G|------------------|
D|1010--101010--10--|
A|------------------|
E|-8-8---8-8-8---8--|

Guitar 1 (distorted):

   Cm                 Bb                 Ab
E|------------------|------------------|------------------|------------------|
B|------------------|------------------|------------------|------------------|
G|------------------|------------------|------------------|------------------|
D|1010--101010--10--|-8-8---8-8-8---8--|-6-6---6---6-6-6--|---6---6-6-6---6--|
A|------------------|------------------|------------------|------------------|
E|-8-8---8-8-8---8--|-6-6---6-6-6---6--|-4-4---4---4-4-4--|---4---4-4-4---4--|

   Cm                 Bb                 Ab
E|------------------|------------------|------------------|------------------|
B|------------------|------------------|------------------|------------------|
G|------------------|------------------|------------------|------------------|
D|1010--101010--12--|-8-8---8-8-8--10--|-6-6---6---6-6-6--|---6---6-6-6---6--|
A|------------------|------------------|------------------|------------------|
E|-8-8---8-8-8--10--|-6-6---6-6-6---8--|-4-4---4---4-4-4--|---4---4-4-4---4--|

   Cm                 Bb                 Ab
E|------------------|------------------|------------------|------------------|
B|------------------|------------------|------------------|------------------|
G|------------------|------------------|------------------|------------------|
D|1010--101010--10--|1212--121212--12--|13/15/13---131313-|--13--1313/-------|
A|------------------|------------------|------------------|----------/-------|
E|-8-8---8-8-8---8--|1010--101010--10--|11/13/11---111111-|--11--1111/-------|

   Cm                 Bb                 Ab      Gm         Ab      Bdim     
E|------------------|------------------|------------------|------------------|
B|------------------|------------------|------------------|------------------|
G|------------------|------------------|------------------|------------------|
D|10/---------------|12----------------|13/15/1312--------|13-------9--------|
A|10/---------------|------------------|------------------|------------------|
E|-8/---------------|10----------------|11/13/1110--------|11-------7--------|

   Cm
E|------------------|
B|------------------|
G|------------------|
D|10----------------|
A|------------------|
E|-8----------------|

Guitar 2 (distorted):

   Cm                 Bb                 Ab
E|------------------|------------------|------------------|------------------|
B|------------------|------------------|------------------|------------------|
G|------------------|------------------|------------------|------------------|
D|1010--101010--10--|-8-8---8-8-8---8--|-6-6---6---6-6-6--|---6---6-6-6---6--|
A|------------------|------------------|------------------|------------------|
E|-8-8---8-8-8---8--|-6-6---6-6-6---6--|-4-4---4---4-4-4--|---4---4-4-4---4--|

   Cm                 Bb                 Ab
E|------------------|------------------|------------------|------------------|
B|------------------|------------------|------------------|------------------|
G|------------------|------------------|------------------|------------------|
D|1010--101010--12--|-8-8---8-8-8--10--|-6-6---6---6-6-6--|---6---6-6-6---6--|
A|------------------|------------------|------------------|------------------|
E|-8-8---8-8-8--10--|-6-6---6-6-6---8--|-4-4---4---4-4-4--|---4---4-4-4---4--|

   Cm                 Bb                 Ab
E|------------------|------------------|------------------|------------------|
B|------------------|------------------|------------------|------------------|
G|------------------|------------------|------------------|------------------|
D|1010--101010--10--|-8-8---8-8-8---8--|-6/8/6-6---6-6-6--|---6---6-6-6---6--|
A|------------------|------------------|------------------|------------------|
E|-8-8---8-8-8---8--|-6-6---6-6-6---6--|-4/6/4-4---4-4-4--|---4---4-4-4---4--|

   Cm                 Bb                 Ab      Gm         Ab      Bdim
E|------------------|------------------|------------------|------------------|
B|------------------|------------------|------------------|------------------|
G|------------------|------------------|------------------|------------------|
D|10/---------------|-8----------------|-6/8/6---5--------|-6-------3--------|
A|10/---------------|------------------|------------------|------------------|
E|-8/---------------|-6----------------|-4/6/4---3--------|-4-------1--------|

   Cm
E|------------------|
B|------------------|
G|------------------|
D|------------------|
A|-3----------------|
E|------------------|

Guitars 1 & 2:

This may have to be played a little differently depending on how your guitar 
is cut, but these are the notes

   Cm         Bdim    Cm  CmM7           Cm          Bdim 
E|--------15--13----|11----------------|--------15--13/---|
B|------1316--15----|13------12----12--|13------16--15/---|
G|----12----17--12--|--12--12--11------|--12--12--17------|
D|--13--------------|----13------13----|----13------------|
A|15----------------|------------------|------------------|
E|------------------|------------------|------------------|



-----------------------------------------------------------------------------
If this tab was helpful and you're as big of a bandits fan as I am, be on the
lookout for more Rx Bandits tabs by yours truly.
Добавлено: 11.11.2013
Другие материалы по этой песне:
  • Аккорды и текст

Страница создана 11.11.2013
http://primanota.ru/rx-bandits/nothings-sacred-chords.htm
Привет, Гость.
Предлагаем пройти революционный курс по гитаре.
Подарок от PrimaNota.Ru, забирай!