PrimaNota.ru - самый крупный в мире бесплатный архив песенных текстов, аккордов, табулатур и нот


Rx Bandits - Infection - текст песни, таба, видео

Регистрация Запомнить меня
Войти через:  Facebook Google Twitter Vk Yandex Mail.ru

Rx Bandits - Infection - текст песни, таба, видео

Печатать
Просмотров: 98
*********************************
* Song   : Infection		*
* Artist : Rx Bandits		*
* Album  : Progress		*
* Year   : 2001			*
*********************************
    Tabbed by: Bill Streckfus

Tempo = 180 bpm

Verse :
------------------------------------------------------------------------------

Guitar 1 (distorted):

   Bm                                      Em                 F#      D
E|------------------|------------------|------------------|------------------|
B|------------------|------------------|------------------|------------------|
G|------------------|------------------|------------------|------------------|
D|------------------|---4-4-4-4--------|---2-2-2-2-2-2-2--|-2-4-4-4-4--------|
A|-2-2-2-2-2-2-2-2--|-2---------5-5-5--|-5----------------|-----------5-5-5--|
E|------------------|------------------|------------------|------------------|
  p.m.p.m.p.m.p.m.p.m.p.m.p.m.p.m.p.m.p.m.p.m.p.m.p.m.p.m.p.m.p.m.p.m.p.m.p.m.

   Bm                                      C#m
E|------------------|------------------|------------------|------------------|
B|------------------|------------------|------------------|------------------|
G|------------------|------------------|------------------|------------------|
D|------------------|---4-4-4-4--------|---2-2-2-2-2-2-2--|-2-2-2-2-2-2-2-2--| x 3
A|-5-2-2-2-2-2-2-2--|-2---------5-5-5--|-5-4-4-4-4-4-4-4--|-4-4-4-4-4-4-4-4--|
E|------------------|------------------|------------------|------------------|
  p.m.p.m.p.m.p.m.p.m.p.m.p.m.p.m.p.m.p.m.p.m.p.m.p.m.p.m.p.m.p.m.p.m.p.m.p.m.

Chorus :
------------------------------------------------------------------------------

Guitar 1 (distorted):

   B5                                    G5
E|------------------|------------------|------------------|------------------|
B|------------------|------------------|------------------|------------------|
G|-4-4-4------------|------------------|------------------|------------------|
D|-4-4-4------------|------------------|-5-5-5------------|------------------|
A|-2-2-2------------|------------------|-5-5-5------------|------------------|
E|------------------|------------------|-3-3-3------------|------------------|

   D5                                    F#
E|------------------|------------------|------------------|------------------|
B|------------------|------------------|------------------|------------------|
G|-7----------------|------------------|------------------|------------------|
D|-7----------------|------------------|-4-4-4-4-4-4-4-4--|-4-4-4-4-4-4-4-4--|
A|-5----------------|------------------|-4-4-4-4-4-4-4-4--|-4-4-4-4-4-4-4-4--|
E|------------------|------------------|-2-2-2-2-2-2-2-2--|-2-2-2-2-2-2-2-2--|

   B5                                    G5
E|------------------|------------------|------------------|------------------|
B|------------------|------------------|------------------|------------------|
G|-4---4-4-4-4-4-4--|-4-4-4-4-4-4-4-4--|------------------|------------------|
D|-4---4-4-4-4-4-4--|-4-4-4-4-4-4-4-4--|-5---5-5-5-5-5-5--|-5-5-5-5-5-5-5-5--|
A|-2---2-2-2-2-2-2--|-2-2-2-2-2-2-2-2--|-5---5-5-5-5-5-5--|-5-5-5-5-5-5-5-5--|
E|------------------|------------------|-3---3-3-3-3-3-3--|-3-3-3-3-3-3-3-3--|

   D5                                    F#
E|------------------|------------------|------------------|------------------|
B|------------------|------------------|------------------|------------------|
G|-7---7-7-7-7-7-7--|-7---7-7-7-7-7-7--|------------------|------------------|
D|-7---7-7-7-7-7-7--|-7---7-7-7-7-7-7--|-4---4-4-4-4-4-4--|-4-4-4-4-4-4-4-4--|
A|-5---5-5-5-5-5-5--|-5---5-5-5-5-5-5--|-4---4-4-4-4-4-4--|-4-4-4-4-4-4-4-4--|
E|------------------|------------------|-2---2-2-2-2-2-2--|-2-2-2-2-2-2-2-2--|

Guitar 2 (distorted):

   B5                                    G5
E|------------------|------------------|------------------|------------------|
B|------------------|------------------|------------------|------------------|
G|-4-4-4------------|------------------|------------------|------------------|
D|-4-4-4------------|------------------|-5-5-5------------|------------------|
A|-2-2-2------------|------------------|-5-5-5------------|------------------|
E|------------------|------------------|-3-3-3------------|------------------|

   D5                                    F#
E|------------------|------------------|------------------|------------------|
B|------------------|------------------|------------------|------------------|
G|-7----------------|------------------|1313131313141313--|--131313131413----|
D|-7----------------|------------------|------------------|------------------|
A|-5----------------|------------------|1111111111121111--|--111111111211----|
E|------------------|------------------|------------------|------------------|

   B5                                    G5
E|------------------|------------------|------------------|------------------|
B|------------------|------------------|------------------|------------------|
G|-4---4-4-4-4-4-4--|-4-4-4-4-4-4-4-4--|------------------|------------------|
D|-4---4-4-4-4-4-4--|-4-4-4-4-4-4-4-4--|-5---5-5-5-5-5-5--|-5-5-5-5-5-5-5-5--|
A|-2---2-2-2-2-2-2--|-2-2-2-2-2-2-2-2--|-5---5-5-5-5-5-5--|-5-5-5-5-5-5-5-5--|
E|------------------|------------------|-3---3-3-3-3-3-3--|-3-3-3-3-3-3-3-3--|

   D5                                    F#
E|------------------|------------------|------------------|------------------|
B|------------------|------------------|------------------|------------------|
G|-7---7-7-7-7-7-7--|-7---7-7-7-7-7-7--|1313131313141313--|--131313131413----|
D|-7---7-7-7-7-7-7--|-7---7-7-7-7-7-7--|------------------|------------------|
A|-5---5-5-5-5-5-5--|-5---5-5-5-5-5-5--|1111111111121111--|--111111111211----|
E|------------------|------------------|------------------|------------------|

Verse 2:
------------------------------------------------------------------------------

The guitars here get a little thick...1-3 become barely audible the third time
around.

Guitar 1 (distorted):

   Bm                                      Em                 F#      D
E|------------------|------------------|------------------|------------------|
B|------------------|------------------|------------------|------------------|
G|------------------|------------------|------------------|------------------|
D|------------------|---4-4-4-4--------|---2-2-2-2-2-2-2--|-2-4-4-4-4--------|
A|-2-2-2-2-2-2-2-2--|-2---------5-5-5--|-5----------------|-----------5-5-5--|
E|------------------|------------------|------------------|------------------|
  p.m.p.m.p.m.p.m.p.m.p.m.p.m.p.m.p.m.p.m.p.m.p.m.p.m.p.m.p.m.p.m.p.m.p.m.p.m.

   Bm                                      C#m
E|------------------|------------------|------------------|------------------|
B|------------------|------------------|------------------|------------------|
G|------------------|------------------|------------------|------------------|
D|------------------|---4-4-4-4--------|---2-2-2-2-2-2-2--|-2-2-2-2-2-2-2-2--| x 3
A|-5-2-2-2-2-2-2-2--|-2---------5-5-5--|-5-4-4-4-4-4-4-4--|-4-4-4-4-4-4-4-4--|
E|------------------|------------------|------------------|------------------|
  p.m.p.m.p.m.p.m.p.m.p.m.p.m.p.m.p.m.p.m.p.m.p.m.p.m.p.m.p.m.p.m.p.m.p.m.p.m.

Guitar 2 (distorted):

E|------------------|------------------|------------------|------------------|
B|------------------|------------------|------------------|------------------|
G|------------------|------------------|------------------|---2-2-2-2-4-4-4--|
D|------------------|------------------|------------------|------------------|
A|------------------|------------------|------------------|------------------|
E|------------------|------------------|------------------|------------------|
  							      p.m.p.m.p.m.p.m.

E|------------------|------------------|------------------|------------------|
B|------------------|------------------|------------------|------------------|
G|-4----------------|------------------|------------------|------------------|
D|---4-4-4-4-4-4-4--|-4-4-4-4-4--------|------------------|------------------| x 3
A|------------------|------------------|------------------|------------------|
E|------------------|------------------|------------------|------------------|
  p.m.p.m.p.m.p.m.p.m.p.m.p.m.

Guitar 3 (delay):

   Bm                                    Em
E|10-----------9----|---------7--------|-5-----------7----|---------3---5----|
B|-----0------------|-0-----------0----|-----0------------|-0---------0------|
G|------------------|------------------|------------------|------------------|
D|------------------|------------------|------------------|------------------|
A|------------------|------------------|------------------|------------------|
E|------------------|------------------|------------------|------------------|

   Bm                                    Em
E|-3----------10----|---------9--------|-5-------9---7----|---------7--------|
B|-----0------------|-0-----------0----|-----0-----0------|------------------|
G|------------------|------------------|------------------|------------------|
D|------------------|------------------|------------------|------------------| x 2
A|------------------|------------------|------------------|------------------|
E|------------------|------------------|------------------|------------------|

Guitar 4 (distorted):

   Bm                                    Em                  F#       D 
E|------------------|------------------|------------------|------------------|
B|------------------|------------------|------------------|------------------|
G|-7-7-7-7----------|-9-9-9-9----------|11111111----------|11111111-9-9-9-9--|
D|------------------|------------------|------------------|------------------|
A|-5-5-5-5----------|-7-7-7-7----------|-9-9-9-9----------|-9-9-9-9-7-7-7-7--|
E|------------------|------------------|------------------|------------------|

   Bm                                    A
E|------------------|------------------|------------------|------------------|
B|------------------|------------------|------------------|------------------|
G|-7-7-7-7----------|-9-9-9-9----------|-6-6-6-6-6-6-6-6--|-6-6-6-6-6-6-6-6--|
D|------------------|---------/--------|------------------|------------------|
A|-5-5-5-5----------|-7-7-7-7-/--------|-4-4-4-4-4-4-4-4--|-4-4-4-4-4-4-4-4--|
E|------------------|---------/--------|------------------|------------------|

Guitar 5 (distorted):

   Bm                                    Em                  F#       D 
E|------------------|------------------|------------------|------------------|
B|------------------|------------------|------------------|------------------|
G|-4-4-4-4----------|-6-6-6-6----------|-7-7-7-7----------|-7-7-7-7-6-6-6-6--|
D|------------------|------------------|------------------|------------------|
A|-2-2-2-2----------|-4-4-4-4----------|-5-5-5-5----------|-5-5-5-5-4-4-4-4--|
E|------------------|------------------|------------------|------------------|

   Bm                                    A
E|------------------|------------------|------------------|------------------|
B|------------------|------------------|------------------|------------------|
G|-4-4-4-4----------|-6-6-6-6----------|------------------|------------------|
D|------------------|---------/--------|-7-7-7-7-7-7-7-7--|-7-7-7-7-7-7-7-7--|
A|-2-2-2-2----------|-4-4-4-4-/--------|-7-7-7-7-7-7-7-7--|-7-7-7-7-7-7-7-7--|
E|------------------|---------/--------|-5-5-5-5-5-5-5-5--|-5-5-5-5-5-5-5-5--|

Chorus:
------------------------------------------------------------------------------

Guitar 1 (distorted):

   B5                                    G5
E|------------------|------------------|------------------|------------------|
B|------------------|------------------|------------------|------------------|
G|-4-4-4------------|------------------|------------------|------------------|
D|-4-4-4------------|------------------|-5-5-5------------|------------------|
A|-2-2-2------------|------------------|-5-5-5------------|------------------|
E|------------------|------------------|-3-3-3------------|------------------|

   D5                                    F#
E|------------------|------------------|------------------|------------------|
B|------------------|------------------|------------------|------------------|
G|-7----------------|------------------|------------------|------------------|
D|-7---7-7-7-7-7-7--|-7-7-7-7-7-7-7-7--|-4-4-4-4-4-4-4-4--|-4-4-4-4-4-4-4-4--|
A|-5---5-5-5-5-5-5--|-5-5-5-5-5-5-5-5--|-4-4-4-4-4-4-4-4--|-4-4-4-4-4-4-4-4--|
E|------------------|------------------|-2-2-2-2-2-2-2-2--|-2-2-2-2-2-2-2-2--|
       p.m.p.m.p.m.p.m.p.m.p.m.p.m.p.m.

   B5                                    G5
E|------------------|------------------|------------------|------------------|
B|------------------|------------------|------------------|------------------|
G|-4---4-4-4-4-4-4--|-4-4-4-4-4-4-4-4--|------------------|------------------|
D|-4---4-4-4-4-4-4--|-4-4-4-4-4-4-4-4--|-5---5-5-5-5-5-5--|-5-5-5-5-5-5-5-5--|
A|-2---2-2-2-2-2-2--|-2-2-2-2-2-2-2-2--|-5---5-5-5-5-5-5--|-5-5-5-5-5-5-5-5--|
E|------------------|------------------|-3---3-3-3-3-3-3--|-3-3-3-3-3-3-3-3--|

   D5                                    F#5
E|------------------|------------------|------------------|------------------|
B|------------------|------------------|------------------|------------------|
G|-7---7-7-7-7-7-7--|-7---7-7-7-7-7-7--|------------------|------------------|
D|-7---7-7-7-7-7-7--|-7---7-7-7-7-7-7--|-4---4-4-4-4-4-4--|-4-4-4-4-4-4-4-4--|
A|-5---5-5-5-5-5-5--|-5---5-5-5-5-5-5--|-4---4-4-4-4-4-4--|-4-4-4-4-4-4-4-4--|
E|------------------|------------------|-2---2-2-2-2-2-2--|-2-2-2-2-2-2-2-2--|

Guitar 2 (distorted):

   B5                                    G5
E|------------------|------------------|------------------|------------------|
B|------------------|------------------|------------------|------------------|
G|-4-4-4------------|------------------|------------------|------------------|
D|-4-4-4------------|------------------|-5-5-5------------|------------------|
A|-2-2-2------------|------------------|-5-5-5------------|------------------|
E|------------------|------------------|-3-3-3------------|------------------|

   D5                                    F#
E|------------------|------------------|------------------|------------------|
B|------------------|------------------|------------------|------------------|
G|-7----------------|------------------|1313131313141313--|--131313131413----|
D|-7---7-7-7-7-7-7--|-7-7-7-7-7-7-7-7--|------------------|------------------|
A|-5---5-5-5-5-5-5--|-5-5-5-5-5-5-5-5--|1111111111121111--|--111111111211----|
E|------------------|------------------|------------------|------------------|
       p.m.p.m.p.m.p.m.p.m.p.m.p.m.p.m.

   B5                                    G5
E|------------------|------------------|------------------|------------------|
B|------------------|------------------|------------------|------------------|
G|-4---4-4-4-4-4-4--|-4-4-4-4-4-4-4-4--|------------------|------------------|
D|-4---4-4-4-4-4-4--|-4-4-4-4-4-4-4-4--|-5---5-5-5-5-5-5--|-5-5-5-5-5-5-5-5--|
A|-2---2-2-2-2-2-2--|-2-2-2-2-2-2-2-2--|-5---5-5-5-5-5-5--|-5-5-5-5-5-5-5-5--|
E|------------------|------------------|-3---3-3-3-3-3-3--|-3-3-3-3-3-3-3-3--|

   D5                                    F#
E|------------------|------------------|------------------|------------------|
B|------------------|------------------|------------------|------------------|
G|-7---7-7-7-7-7-7--|-7---7-7-7-7-7-7--|1313131313141313--|--131313131413----|
D|-7---7-7-7-7-7-7--|-7---7-7-7-7-7-7--|------------------|------------------|
A|-5---5-5-5-5-5-5--|-5---5-5-5-5-5-5--|1111111111121111--|--111111111211----|
E|------------------|------------------|------------------|------------------|

Bridge:
------------------------------------------------------------------------------

Guitars 1 & 2 (distorted):

   G5                 D5                 A5
E|------------------|------------------|------------------|------------------|
B|------------------|------------------|------------------|------------------|
G|------------------|---------7--------|------------------|------------------|
D|---------5-----5--|---------7--------|---------7-----7--|---------7--------| x 4
A|---------5-----5--|---5-5-5-5-5-5-5--|---------7-----7--|---------7--------|
E|-3-3-3-3-3-333-3--|------------------|-5-5-5-5-5-555-5--|---5-5-5-5-5-5-5--|
   p.m.p.m.  p.m.         p.m.   p.m.    p.m.p.m.  p.m.         p.m.   p.m.

   B5            G5                      D5      G5         F#5     G5            
E|------------------|------------------|------------------|------------------|
B|------------------|------------------|------------------|------------------|
G|-4-4-4-------x----|------------------|-7-7---x----------|------------------|
D|-4-4-4-------x-5--|-----5---5-5---5--|-7-7---x-5-5---5--|-4-4---4-5-5---5--|
A|-2-2-2-------x-5--|-----5---5-5---5--|-5-5---x-5-5---5--|-4-4---4-5-5---5--|
E|---------------3--|-----3---3-3---3--|---------3-3---3--|-2-2---2-3-3---3--|

   A5            B5                      G5      F#5        G5       A5
E|------------------|------------------|------------------|------------------|
B|------------------|------------------|------------------|------------------|
G|------------------|------------------|------------------|------------------|
D|-7-7-7-------x-9--|-----9---9-9---9--|-x-5-----x-4------|-x-5------x-7-----|
A|-7-7-7-------x-9--|-----9---9-9---9--|-x-5-----x-4------|-x-5------x-7-----|
E|-5-5-5-------x-7--|-----7---7-7---7--|-x-3-----x-2------|-x-3------x-5-----|

   B5            G5                      D5      G5         F#5     G5   
E|------------------|------------------|------------------|------------------|
B|------------------|------------------|------------------|------------------|
G|-4-4-4-------x----|------------------|-7-7---x----------|------------------|
D|-4-4-4-------x-5--|-----5---5-5---5--|-7-7---x-5-5---5--|-4-4---4-5-5---5--|
A|-2-2-2-------x-5--|-----5---5-5---5--|-5-5---x-5-5---5--|-4-4---4-5-5---5--|
E|---------------3--|-----3---3-3---3--|---------3-3---3--|-2-2---2-3-3---3--|

   A5            B5
E|------------------|------------------|
B|------------------|------------------|
G|------------------|------------------|
D|-7-7-7-------x-9--|-----9---9-9---9--|
A|-7-7-7-------x-9--|-----9---9-9---9--|
E|-5-5-5-------x-7--|-----7---7-7---7--|

   F#5                G5      F#5        G5                 A5      A#5 D5
E|------------------|------------------|------------------|------------------|
B|------------------|------------------|------------------|------------------|
G|------------------|------------------|------------------|-------------7----|
D|------------------|------------------|------------------|-------------7----|
A|-4-4-4-4-4-4-4----|-5-5-5-5-4-4-4----|-5-5-5-5-5-5-5-5--|-7-7-7-7-8-8-5----|
E|-2-2-2-2-2-2-2-0--|-3-3-3-3-2-2-2-0--|-3-3-3-3-3-3-3-3--|-5-5-5-5-6-6------|

Chorus:
------------------------------------------------------------------------------
  
   B5
E|------------------|------------------|------------------|------------------|
B|------------------|------------------|------------------|------------------|
G|-4-4-4------------|------------------|------------------|------------------|
D|-4-4-4------------|------------------|------------------|------------------|
A|-2-2-2------------|------------------|------------------|------------------|
E|------------------|------------------|------------------|------------------|

   D5                                    F#
E|------------------|------------------|------------------|------------------|
B|------------------|------------------|------------------|------------------|
G|-7-----7-----7----|---7-----7---7----|11----11----11----|--11----11--11----|
D|-7-----7-----7----|---7-----7---7----|11----11----11----|--11----11--11----|
A|-5-----5-----5----|---5-----5---5----|-9-----9-----9----|---9-----9---9----|
E|------------------|------------------|------------------|------------------|

   B5                                    G5
E|------------------|------------------|------------------|------------------|
B|------------------|------------------|------------------|------------------|
G|-4---4-4-4-4-4-4--|-4-4-4-4-4-4-4-4--|------------------|------------------|
D|-4---4-4-4-4-4-4--|-4-4-4-4-4-4-4-4--|-5---5-5-5-5-5-5--|-5-5-5-5-5-5-5-5--|
A|-2---2-2-2-2-2-2--|-2-2-2-2-2-2-2-2--|-5---5-5-5-5-5-5--|-5-5-5-5-5-5-5-5--|
E|------------------|------------------|-3---3-3-3-3-3-3--|-3-3-3-3-3-3-3-3--|

   D5                                    F#
E|------------------|------------------|------------------|------------------|
B|------------------|------------------|------------------|------------------|
G|-7---7-7-7-7-7-7--|-7---7-7-7-7-7-7--|1111111111111111--|1111111111111111--|
D|-7---7-7-7-7-7-7--|-7---7-7-7-7-7-7--|1111111111111111--|1111111111111111--|
A|-5---5-5-5-5-5-5--|-5---5-5-5-5-5-5--|-9-9-9-9-9-9-9-9--|-9-9-9-9-9-9-9-9--|
E|------------------|------------------|------------------|------------------|

Guitar 2 (distorted):

   B5
E|------------------|------------------|------------------|------------------|
B|------------------|------------------|------------------|------------------|
G|-4-4-4------------|------------------|------------------|------------------|
D|-4-4-4------------|------------------|------------------|------------------|
A|-2-2-2------------|------------------|------------------|------------------|
E|------------------|------------------|------------------|------------------|

   D5                                    F#
E|------------------|------------------|------------------|------------------|
B|------------------|------------------|------------------|------------------|
G|-7-----7-----7----|---7-----7---7----|13----13----13----|--13----13--13----|
D|-7-----7-----7----|---7-----7---7----|------------------|------------------|
A|-5-----5-----5----|---5-----5---5----|11----11----11----|--11----11--11----|
E|------------------|------------------|------------------|------------------|

   B5                                    G5
E|------------------|------------------|------------------|------------------|
B|------------------|------------------|------------------|------------------|
G|-4---4-4-4-4-4-4--|-4-4-4-4-4-4-4-4--|------------------|------------------|
D|-4---4-4-4-4-4-4--|-4-4-4-4-4-4-4-4--|-5---5-5-5-5-5-5--|-5-5-5-5-5-5-5-5--|
A|-2---2-2-2-2-2-2--|-2-2-2-2-2-2-2-2--|-5---5-5-5-5-5-5--|-5-5-5-5-5-5-5-5--|
E|------------------|------------------|-3---3-3-3-3-3-3--|-3-3-3-3-3-3-3-3--|

   D5                                    F#
E|------------------|------------------|------------------|------------------|
B|------------------|------------------|------------------|------------------|
G|-7---7-7-7-7-7-7--|-7---7-7-7-7-7-7--|1313131313141313--|--131313131413----|
D|-7---7-7-7-7-7-7--|-7---7-7-7-7-7-7--|------------------|------------------|
A|-5---5-5-5-5-5-5--|-5---5-5-5-5-5-5--|1111111111121111--|--111111111211----|
E|------------------|------------------|------------------|------------------|

Outro:
------------------------------------------------------------------------------

Guitar 1 (distorted):

   Bm                                    G
E|------------------|------------------|------------------|------------------|
B|------------------|------------------|------------------|------------------|
G|-4-4-4-4-4-4-4-4--|-6-6-6-6-7-7-7-7--|11111111-9-9-9-9--|1212121211111111--|
D|------------------|------------------|------------------|------------------|
A|-2-2-2-2-2-2-2-2--|-4-4-4-4-5-5-5-5--|-9-9-9-9-7-7-7-7--|10101010-9-9-9-9--|
E|------------------|------------------|------------------|------------------|

   D                                     F#
E|------------------|------------------|------------------|------------------|
B|------------------|------------------|------------------|------------------|
G|-9-9-9-9-7-7-7-7--|-7-7-7-7-7-7-7-7--|-6-6-6-6-6-6-6-6--|-6-6-6-6-6-6-6-6--|
D|------------------|------------------|------------------|------------------| x 4
A|-7-7-7-7-5-5-5-5--|-5-5-5-5-5-5-5-5--|-4-4-4-4-4-4-4-4--|-4-4-4-4-4-4-4-4--|
E|------------------|------------------|------------------|------------------|

Guitar 2 (distorted):

   Bm                                    G
E|------------------|------------------|------------------|------------------|
B|------------------|------------------|------------------|------------------|
G|-4-4-4-4-4-4-4-4--|-6-6-6-6-7-7-7-7--|11111111-9-9-9-9--|1212121211111111--|
D|------------------|------------------|------------------|------------------|
A|-2-2-2-2-2-2-2-2--|-4-4-4-4-5-5-5-5--|-9-9-9-9-7-7-7-7--|10101010-9-9-9-9--|
E|------------------|------------------|------------------|------------------|

   D                                     F#
E|------------------|------------------|------------------|------------------|
B|------------------|------------------|------------------|------------------|
G|-9-9-9-9-7-7-7-7--|-7-7-7-7-7-71111--|-6-6-6-6-6-6-6-6--|-6-6-6-6-6-6-6-6--|
D|------------------|------------------|------------------|------------------| x 4
A|-7-7-7-7-5-5-5-5--|-5-5-5-5-5-5-9-9--|-4-4-4-4-4-4-4-4--|-4-4-4-4-4-4-4-4--|
E|------------------|------------------|------------------|------------------|


-----------------------------------------------------------------------------
If this tab was helpful and you're as big of a bandits fan as I am, be on the
lookout for more Rx Bandits tabs by yours truly.
Добавлено: 13.10.2013
Другие материалы по этой песне:
  • Аккорды и текст

Страница создана 26.07.2012
http://primanota.ru/rx-bandits/infection-chords.htm
Привет, Гость.
Предлагаем пройти революционный курс по гитаре.
Подарок от PrimaNota.Ru, забирай!