PrimaNota.ru - самый крупный в мире бесплатный архив песенных текстов, аккордов, табулатур и нот


Rx Bandits - In Her Drawer - текст песни, таба, видео

Регистрация Запомнить меня
Войти через:  Facebook Google Twitter Vk Yandex Mail.ru

Rx Bandits - In Her Drawer - текст песни, таба, видео

Печатать
Просмотров: 107
-------------------------------------------------------------------------------
			     Rx Bandits - In Her Drawer
-------------------------------------------------------------------------------
Tabbed by:Andy c.
Email:cheeseomelet@gmail.com

Tuning:Standard

In Her Drawer

Intro
   G      Dm               C         Em        Am        Dm        Bb
e--3------5------5-5--5-5--3-3--3-3--7-7--7-7--5-5--5-5--5-5--5-5--6-6--6-6--3-3--5-5--6------|
B--3------6------6-6--6-6--5-5--5-5--8-8--8-8--5-5--5-5--6-6--6-6--6-6--6-6--5-5--6-6--6------|
G--4-(x5)-7-(x5)-7-7--7-7--5-5--5-5--9-9--9-9--6-6--6-6--7-7--7-7--7-7--7-7--5-5--7-7--7------|
D--5------7------7-7--7-7--5-5--5-5--9-9--9-9--7-7--7-7--7-7--7-7--8-8--8-8--5-5--7-7--8-(x5)-|
A--5------5------5-5--5-5--3-3--3-3--7-7--7-7--7-7--7-7--5-5--5-5--8-8--8-8--3-3--5-5--8------|
E---------5------5-5--5-5--3-3--3-3--7-7--7-7------------5-5--5-5--6-6--6-6--3-3--5-5--6------|

e--5-5--5-5--3-3--3-3--5-5--5-5--5-5--5-5--6--3-5-|
B--6-6--6-6--3-3--3-3--5-5--5-5--6-6--6-6--6--5-6-|
G--7-7--7-7--4-4--4-4--6-6--6-6--7-7--7-7--7--5-7-|
D--7-7--7-7--5-5--5-5--7-7--7-7--7-7--7-7--8--5-7-|
A--5-5--5-5--5-5--5-5--7-7--7-7--5-5--7-7--8--3-5-|
E--5-5--5-5--------------------------------6--3-5-|

Verse
e--5-5--5-5--3-3--3-3--7-7-7--5-5--5-5--5-5--5-5--6--3-5-6-6-6-6-|
B--6-6--6-6--3-3--3-3--8-8-8--5-5--5-5--6-6--6-6--6--5-6-6-6-6-6-|
G--7-7--7-7--4-4--4-4--9-9-9--6-6--6-6--7-7--7-7--7--5-7-7-7-7-7-|
D--7-7--7-7--5-5--5-5--9-9-9--7-7--7-7--7-7--7-7--8--5-7-8-8-8-8-| 
A--5-5--5-5--5-5--5-5--7-7-7--7-7--7-7--5-5--7-7--8--3-5-8-8-8-8-|
E--5-5--5-5---------------------------------------6--3-5-6-6-6-6-|

Bridge 1
e--6------5------3------6------3------5------|
B--6------6------5------6------3------5------|
G--7------7------5------7------4-(x5)-6-(x5)-|
D--8-(x8)-7-(x8)-5-(x8)-8-(x8)-5------7------|
A--8------5------3------8------5------7------|
E--6------5------3------6--------------------|

Chorus
e-----------------------------------|
B-----------------------------------|
G-----------------4------5----------|
D--7-------3------4-(x4)-5-(x4)-5-5-|
A--7-(x16)-3-(x8)-2------3------5-5-|
E--5-------1--------------------3-3-|

Bridge 2 (1:48)
Guitar 1
e----5---8-4---14----------11-13-17-15-12-9-10-11-12-|------7---------------------|
B--4---6-----7----14-12-14---------------------------|--8-7---8-7-5---------------|
G----------------------------------------------------|-------------------6-7-6-4--|
D----------------------------------------------------|----------------------------|
A----------------------------------------------------|----------------------------|
E----------------------------------------------------|----------------------------|

Guitar 2
e--------------------------|
B--------------------------|
G-----6--4-6----4-6----4-6-|
D--8----------4------4-----|
A--------------------------|
E--------------------------|

Fill 1 
e--7-7--7-7-7-7--7-7-xxxxxxxxx-7-7--7-7-7--5-5--2-2-2-|
B--8-8--8-8-8-8--8-8-xxxxxxxxx-8-8--8-8-8--7-7--3-3-3-|
G--9-9--9-9-9-9--9-9-xxxxxxxxx-9-9--9-9-9--7-7--4-4-4-|
D--9-9--9-9-9-9--9-9-xxxxxxxxx-9-9--9-9-9--7-7--4-4-4-|
A--7-7--7-7-7-7--7-7-xxxxxxxxx-7-7--7-7-7--5-5--2-2-2-|
E--7-7--7-7-7-7--7-7-xxxxxxxxx-7-7--7-7-7--5-5--2-2-2-|

Chorus x4

Bridge 3
e--2-0-0-222-555-777-00-33-22-55-77---7---5---/9999-----10-9-7-5-7---7-9-10-9-7-5-9-5-|
B-----3----------------------------3/7--7---7-------5/7---5-5-----5/7-5-5-------------|
G-------------------------------------------------------------------------------------|
D-------------------------------------------------------------------------------------|
A-------------------------------------------------------------------------------------|
E-------------------------------------------------------------------------------------|

e-------14--14--12--12--10--9--9--7-7-----|
B--9/12---12--12--12--12--10-10-10-7-7----|
G-----------------------------------------|
D------------------------------------(x2)-|
A-----------------------------------------|
E-----------------------------------------|

Verse 2
e---------------------------------------|--------------------|
B---------------------------------------|--------------------|
G--4-4--6-6--6-6--7-7--9-9-9-9-9-9------|----------4--5------|
D--4-4--6-6--6-6--7-7--9-9-9-9-9-9-(x6)-|--7---3---4--5--5-5-|
A--2-2--4-4--4-4--5-5--7-7-7-7-7-7------|--7---3---2--3--5-5-|
E---------------------------------------|--5---1---------3-3-|

Order:
Intro
Verse x2
Bridge 1
Verse x4
Chorus x2
Bridge 2
Fill 1
Chorus x4
Bridge 3
Verse 2
Chorus x6
Intro 


| /  slide up
| \  slide down
| h  hammer-on
| p  pull-off
| ~  vibrato
| +  harmonic
| x  Mute note
===============================================================================
Добавлено: 03.11.2013
Другие материалы по этой песне:
  • Аккорды и текст

Страница создана 29.05.2012
http://primanota.ru/rx-bandits/in-her-drawer-chords.htm
Привет, Гость.
Предлагаем пройти революционный курс по гитаре.
Подарок от PrimaNota.Ru, забирай!