PrimaNota.ru - самый крупный в мире бесплатный архив песенных текстов, аккордов, табулатур и нот


Rx Bandits - Get - текст песни, таба, видео

Регистрация Запомнить меня
Войти через:  Facebook Google Twitter Vk Yandex Mail.ru

Rx Bandits - Get - текст песни, таба, видео

Печатать
Просмотров: 73
*********************************
* Song   : Get			*
* Artist : Rx Bandits		*
* Album  : Progress		*
* Year   : 2001			*
*********************************
    Tabbed by: Bill Streckfus

Tempo = 185 bpm

Intro:
------------------------------------------------------------------------------

Guitar 1:

   Eb5     F5         Bb5     Eb5        F5      Bb5                Eb5
E|------------------|------------------|------------------|------------------|
B|------------------|------------------|------------------|------------------|
G|------------------|10101010----------|--------10101010--|10101010----------|
D|-8---x-x10101010--|-8-8-8-8-8-8-8-8--|10101010-8-8-8-8--|-8-8-8-8-8-8-8-8--| 
A|-6---x-x-8-8-8-8--|---------6-6-6-6--|-8-8-8-8----------|---------6-6-6-6--|
E|------------------|------------------|------------------|------------------|
   p.m.p.m.p.m.p.m.p.m.p.m.p.m.p.m.p.m.  p.m.p.m.p.m.p.m.p.m.p.m.p.m.p.m.p.m.

   F5      Bb5        Eb5                Fb5
E|------------------|------------------|------------------|
B|------------------|------------------|------------------|
G|--------10101010--|------------------|------------------|
D|10101010-8-8-8-8--|-8-8-8-8-8-8-8-8--|1010101010101010--| 
A|-8-8-8-8----------|-6-6-6-6-6-6-6-6--|-8-8-8-8-8-8-8-8--|
E|------------------|------------------|------------------|
   p.m.p.m.p.m.p.m.p.m.p.m.p.m.p.m.p.m.  p.m.p.m.p.m.p.m.

Verse:
------------------------------------------------------------------------------

Guitars 1 & 2:

   Gm                
E|------------------|------------------|
B|------------------|------------------|
G|------------------|------------------|
D|------------------|---5-3------------| x 7
A|-------5-3---5----|-------5---3-5----|
E|-3---6------------|---------6-----6--|

   Eb                 Dm
E|------------------|------------------|
B|------------------|------------------|
G|------------------|------------------|
D|------------------|------------------| 
A|-6-----6-----6----|-5-----5-----5----|
E|------------------|------------------|

Guitar 3:

   Gm
E|-6-6-x-x-x-x-x-x--|-x-x-x-x-x-x11-xx-|-x-x-x-x-x-x-x-x--|-x-x-x-x-x-x-x-8--|
B|-8-8-x-x-x-x-x-x--|-x-x-x-x-x-x11-xx-|-x-x-x-x-x-x-x-x--|-x-x-x-x-x-x-x-7--|
G|-7-7-x-x-x-x-x-x--|-x-x-x-x-x-x12-xx-|-x-x-x-x-x-x-x-x--|-x-x-x-x-x-x-x-7--|
D|------------------|------------------|------------------|------------------| 
A|------------------|------------------|------------------|------------------|
E|------------------|------------------|------------------|------------------|

   Gm                                   Eb                 D7
E|-x-6-x-x-x-x-x-x--|-x-x-x-x-x-x-x-x--|11----11----11----|-8-----8-----8----|
B|-x-8-x-x-x-x-x-x--|-x-x-x-x-x-x-x-x--|-8-----8-----8----|-7-----7-----7----|
G|-x-7-x-x-x-x-x-x--|-x-x-x-x-x-x-x-x--|-8-----8-----8----|-7-----7-----7----|
D|------------------|------------------|------------------|------------------| 
A|------------------|------------------|------------------|------------------|
E|------------------|------------------|------------------|------------------|

Guitars 1 & 2:

   Gm                 Eb      D5         Gm                 Eb      D5
E|------------------|------------------|------------------|------------------|
B|------------------|------------------|------------------|------------------|
G|-7---5-7----------|------------------|-7---5-7----------|------------------|
D|---------8--------|-----5-8-7--------|---------8--------|-----5-8-7--------| 
A|-------------8----|---6---------5----|-------------8----|-666--------------|
E|------------------|------------------|------------------|------------------|

   Gm                 Eb      D5         Eb                 D
E|------------------|------------------|------------------|------------------|
B|------------------|------------------|------------------|------------------|
G|-7---5-7----------|------------------|-8-8-8-8-8-8-8-8--|-7-7-7-7-7-7-7-7--|
D|---------8--------|-----5-8-7--------|-8-8-8-8-8-8-8-8--|-7-7-7-7-7-7-7-7--|
A|-------------8----|---6---------5----|-6-6-6-6-6-6-6-6--|-5-5-5-5-5-5-5-5--|
E|------------------|------------------|------------------|------------------|
					 Crescendo

Guitar 3 (light):

   Gm
E|-x-6-x-6-x-6-x-6--|-x-6-x-6-x-6-x-6--|
B|-x-8-x-8-x-8-x-8--|-x-8-x-8-x-8-x-8--|
G|-x-7-x-7-x-7-x-7--|-x-7-x-7-x-7-x-7--|
D|------------------|------------------| x 3 
A|------------------|------------------|
E|------------------|------------------|

   Eb                 D
E|-6-6-6-6-6-6-6-6--|1010101010101010--|
B|-8-8-8-8-8-8-8-8--|-7-7-7-7-7-7-7-7--|
G|-8-8-8-8-8-8-8-8--|-7-7-7-7-7-7-7-7--|
D|------------------|------------------|
A|------------------|------------------|
E|------------------|------------------|

Chorus
------------------------------------------------------------------------------

Guitar 1 (distorted):

   Eb5     F5         Bb5     G5         Eb5     F5         Bb5        
E|------------------|------------------|------------------|------------------|
B|------------------|------------------|------------------|------------------|
G|-8---x-x10---x-x--|------------------|-8---x-x10---x-x--|------------------|
D|-8---x-x10---x-x--|-8---x-x-5---x-x--|-8---x-x10---x-x--|-8-8-8-8-8-8-8-8--| 
A|-6---x-x-8---x-x--|-8---x-x-5---x-x--|-6---x-x-8---x-x--|-8-8-8-8-8-8-8-8--|
E|------------------|-6---x-x-3---x-x--|------------------|-6-6-6-6-6-6-6-6--|

   Eb5     F5         Bb5     G5         Gb5                F5
E|------------------|------------------|------------------|------------------|
B|------------------|------------------|------------------|------------------|
G|-8---x-x10---x-x--|------------------|------------------|------------------|
D|-8---x-x10---x-x--|-8---x-x-5---x-x--|-4-4-4-4-4-4-4-4--|-3-3-3-3-3-3-3-3--| 
A|-6---x-x-8---x-x--|-8---x-x-5---x-x--|-4-4-4-4-4-4-4-4--|-3-3-3-3-3-3-3-3--|
E|------------------|-6---x-x-3---x-x--|-2-2-2-2-2-2-2-2--|-1-1-1-1-1-1-1-1--|

Guitar 2 (distorted):

   Eb5     F5         Bb5     G5         Eb5     F5         Bb5  
E|------------------|------------------|------------------|------------------|
B|------------------|------------------|------------------|------------------|
G|-8---x-x10---x-x--|------------------|-8---x-x10---x-x--|------------------|
D|-8---x-x10---x-x--|-8---x-x-5---x-x--|-8---x-x10---x-x--|-8-8-8-8-8-8-8-8--| 
A|-6---x-x-8---x-x--|-8---x-x-5---x-x--|-6---x-x-8---x-x--|-8-8-8-8-8-8-8-8--|
E|------------------|-6---x-x-3---x-x--|------------------|-6-6-6-6-6-6-6-6--|

   Eb5     F5         Bb5     G5         Gb5                F5
E|------------------|------------------|------------------|------------------|
B|------------------|------------------|------------------|------------------|
G|-8---x-x10---x-x--|------------------|-4-4-4-4-4-4-4-4--|-3-3-3-3-3-3-3-3--|
D|-8---x-x10---x-x--|-8---x-x-5---x-x--|------------------|------------------| 
A|-6---x-x-8---x-x--|-8---x-x-5---x-x--|-4-4-4-4-4-4-4-4--|-3-3-3-3-3-3-3-3--|
E|------------------|-6---x-x-3---x-x--|------------------|------------------|

Verse 2
------------------------------------------------------------------------------

The only thing different here is the little alteration right before the second 
verse is sung (triplet drum fill) and the backing guitar plays slightly 
different chords.

Guitars 1 & 2:

   Gm
E|------------------|------------------|
B|------------------|------------------|
G|------------------|------------------|
D|------------------|-5--3-------------| 
A|-------5-3---5----|-------5-3--------|
E|-3---6------------|-----------6-3----|

Guitar 3:

   Gm
E|-6-6-x-x-x-x-x-x--|-x-x-x-x-x-x-8-xx-|-x-x-x-x-x-x-x-x--|-x-x-x-x-x-x-x-8--|
B|-8-8-x-x-x-x-x-x--|-x-x-x-x-x-x-7-xx-|-x-x-x-x-x-x-x-x--|-x-x-x-x-x-x-x-7--|
G|-7-7-x-x-x-x-x-x--|-x-x-x-x-x-x-5-xx-|-x-x-x-x-x-x-x-x--|-x-x-x-x-x-x-x-5--|
D|------------------|------------------|------------------|------------------| 
A|------------------|------------------|------------------|------------------|
E|------------------|------------------|------------------|------------------|

   Gm                                    Eb                 D7 
E|-x-6-x-x-x-x-x-x--|-x-x-x-x-x-x-x-x--|11----11----11----|-8-----8-----8----|
B|-x-8-x-x-x-x-x-x--|-x-x-x-x-x-x-x-x--|-8-----8-----8----|-7-----7-----7----|
G|-x-7-x-x-x-x-x-x--|-x-x-x-x-x-x-x-x--|-8-----8-----8----|-7-----7-----7----|
D|------------------|------------------|------------------|------------------| 
A|------------------|------------------|------------------|------------------|
E|------------------|------------------|------------------|------------------|

Everything else remains the same as Verse 1.

Bridge
------------------------------------------------------------------------------

Guitars 1 & 2 (distorted):

   Gm          Gdim
E|-6---x-6---x-9-9--|-9-9-9-9-9-9-9-9--|
B|-8---x-8---x-8-8--|-8-8-8-8-8-8-8-8--|
G|-7---x-7---x-6-6--|-6-6-6-6-6-6-6-6--|
D|------------------|------------------| x 3
A|------------------|------------------|
E|------------------|------------------|

   D7
E|-8-8-8-8-8-8-8-8--|-8-8-8-8-8-8-8-8--|
B|-7-7-7-7-7-7-7-7--|-7-7-7-7-7-7-7-7--|
G|-7-7-7-7-7-7-7-7--|-7-7-7-7-7-7-7-7--|
D|------------------|------------------| 
A|------------------|------------------|
E|------------------|------------------|

And then to the intro...

Final Chorus
------------------------------------------------------------------------------

The last chorus is like the first two, except an additional guitar creeps in.
Its sound becomes more noticeable as the chorus repeats.

Guitar 3 (light):
   
   Eb      F          Bb      G5         Eb      F          Bb
E|------------------|------------------|------------------|------------------|
B|------------------|------------------|------------------|------------------|
G|12---x-x14---x-x--|-7---x-x-7---x-x--|12---x-x14---x-x--|-7-7-7-7-7-7-7-7--|
D|------------------|------------------|------------------|------------------| 
A|10---x-x12---x-x--|-5---x-x-5---x-x--|10---x-x12---x-x--|-5-5-5-5-5-5-5-5--|
E|------------------|------------------|------------------|------------------|

   Eb      F          Bb      G5         Gb5                F5
E|------------------|------------------|------------------|------------------|
B|------------------|------------------|------------------|------------------|
G|12---x-x14---x-x--|-7---x-x-7---x-x--|-4-4-4-4-4-4-4-4--|-3-3-3-3-3-3-3-3--|
D|------------------|------------------|------------------|------------------| 
A|10---x-x12---x-x--|-5---x-x-5---x-x--|-4-4-4-4-4-4-4-4--|-3-3-3-3-3-3-3-3--|
E|------------------|------------------|------------------|------------------|

   Eb      F          Bb      G5         Eb     F           Bb 
E|------------------|------------------|------------------|------------------|
B|------------------|------------------|------------------|------------------|
G|12---x-x14---x-x--|-7---x-x-7---x-x--|12---x-x14---x-x--|1919191919191919--|
D|------------------|------------------|------------------|------------------| 
A|10---x-x12---x-x--|-5---x-x-5---x-x--|10---x-x12---x-x--|1717171717171717--|
E|------------------|------------------|------------------|------------------|

   Eb      F          Bb      G5         Gb                 F5
E|------------------|------------------|------------------|------------------|
B|------------------|------------------|------------------|------------------|
G|12---x-x14---x-x--|-7---x-x-7---x-x--|1515151515151515--|-3-3-3-3-3-3-3-3--|
D|------------------|------------------|------------------|------------------| 
A|10---x-x12---x-x--|-5---x-x-5---x-x--|1313131313131313--|-3-3-3-3-3-3-3-3--|
E|------------------|------------------|------------------|------------------|


-----------------------------------------------------------------------------
If this tab was helpful and you're as big of a bandits fan as I am, be on the
lookout for more Rx Bandits tabs by yours truly.
Добавлено: 26.08.2013
Другие материалы по этой песне:
  • Аккорды и текст

Страница создана 19.04.2012
http://primanota.ru/rx-bandits/get-chords.htm
Привет, Гость.
Предлагаем пройти революционный курс по гитаре.
Подарок от PrimaNota.Ru, забирай!