PrimaNota.ru - самый крупный в мире бесплатный архив песенных текстов, аккордов, табулатур и нот


Rx Bandits - Epoxi-Lips - текст песни, таба, видео

Регистрация Запомнить меня
Войти через:  Facebook Google Twitter Vk Yandex Mail.ru

Rx Bandits - Epoxi-Lips - текст песни, таба, видео

Печатать
Просмотров: 94
-------------------------------------------------------------------------------
			     Epoxi-Lips - Rx Bandits
-------------------------------------------------------------------------------
Tabbed by:Andy C.
Email:cheeseomelet@gmail.com

Tuning:Standard

Intro
e-------------------------------------------|
B-------------------------------------------|
G-------------------------------------------|  x4
D-------7-5-3-------------------------------|
A--5-5---------7----------7-7--4-4----------|
E-------------------5-5-5-------------------|

e---------------------------------------------|
B---------------------------------------------|
G---------------------------------------------|
D-----3-5-7---------------------3-5-7---------| x4
A--5----------------7-4---5-5-------------7-4-|
E--------------5-5---------------------5------|

e--5------7-7--7-7---8------|---------------------|-5------7-7--7-7---8------|-----------------|
B--6------8-8--8-8--10------|---------------------|-6------8-8--8-8--10------|-----------------|
G--7-(x4)-9-9--9-9--10-(x4)-|-----------10-10-6-6-|-7-(x4)-9-9--9-9--10-(x4)-|-------10-10-6-7-|
D--7------9-9--9-9--10------|-8-8-8-7-7-10-10-6-6-|-7------9-9--9-9--10------|-7-7-7-10-10-6-7-|
A--5------7-7--7-7---8------|-8-8-8-7-7--8--8-4-4-|-5------7-7--7-7---8------|-7-7-7--8--8-4-5-|
E--5------7-7--7-7---8------|-6-6-6-5-5-----------|-5------7-7--7-7---8------|-5-5-5-----------|

Verse 1
e---------------------------------------------|
B---------------------------------------------|
G---------------------------------------------|
D-----3-5-7---------------------3-5-7---------|
A--5----------------7-4---5-5-------------7-4-|
E--------------5-5---------------------5------|

Pre-Chorus
e--6----6-6--5----5-5---|
B--6----6-6--6----6-6---|
G--7----7-7--7----7-7---|
D-----------------------|
A-----------------------|
E-----------------------|

Chorus
Guitar 1
e-----------------|-5-5-5-5--5-5-5-5------|
B-----------------|-6-6-6-6--5-5-5-5------|
G-----------------|-7-7-7-7--6-6-6-6-(x8)-|
D--3------7-------|-7-7-7-7--7-7-7-7------|
A--3-(x8)-7-(x8)--|-5-5-5-5--7-7-7-7------|
E--1------5-------|-5-5-5-5--5-5-5-5------|

Guitar 2
e-----------------------|-5-5-5-5--5-5-5-5------|
B-----------------------|-6-6-6-6--5-5-5-5------|
G-----------------------|-7-7-7-7--6-6-6-6-(x8)-|
D--3------6------7------|-7-7-7-7--7-7-7-7------|
A--3-(x8)-x-(x4)-x-(x4)-|-5-5-5-5--7-7-7-7------|
E--1------4------5------|-5-5-5-5--5-5-5-5------|

Bridge 1
e--------------------------------------------------------------|
B----------------------------------8-8-------------------------|
G--7-7-----7-7-----10-10-----10-10-----99----99----66----66----|
D--------------8-8-------7-7-----------------------------------|
A------8-8--------------------------------77----77----44----44-|
E--------------------------------------------------------------|

Verse 2
Guitar 1
e--------------------------|
B--x-x-10p8----------------|
G---------------x-x-9h10---|
D--------------------------|
A--------------------------|
E--------------------------|
Guitar 2
e--------------------------|
B--x-x-6p5-----------------|
G---------------x-x-4h6----|
D--------------------------|
A--------------------------|
E--------------------------|

Bridge 2
e--x-x-5-5-5-5-5-5--5-5--5-5-5-5-5-5-8-5-5-5-5-5-5-5------------5-5-5-5-|
B--x-x-6-6-5-5-6-6--6-6--6-6-5-5-6-6-6-6-6-6-5-5-6-6--6/8-5-6-5-6-6-6-6-|
G--x-x-5-5-5-5-5-5--5-5--5-5-5-5-5-5-5-5-5-5-5-5-5-5------------5-5-5-5-|
D-----------------------------------------------------------------------|
A-----------------------------------------------------------------------|
E-----------------------------------------------------------------------|

Fill 1  (2:14)
e--7-------8--8--8--8--10------|-----------------------|
B--8-------9--9--9--9--12------|-----------------------|
G--9-(x4)-10-10-10-10--12-(x4)-|-------------12-12-8-8-|
D--9------11-11-11-11--12------|10-10-10-9-9-12-12-8-8-|
A--7------11-11-11-11--10------|10-10-10-9-9-10-10-6-6-|
E--7-------9--9--9--9--10------|-8--8--8-7-7-----------|

e--7-------8--8--8--8--10------|---------------------|
B--8-------9--9--9--9--12------|---------------------|
G--9-(x4)-10-10-10-10--12-(x4)-|-------12-12-8-8-9-9-|
D--9------11-11-11-11--12------|-9-9-9-12-12-8-8-9-9-|
A--7------11-11-11-11--10------|-9-9-9-10-10-6-6-7-7-|
E--7-------9--9--9--9--10------|-7-7-7---------------|

Solo (2:35)
use tremolo picking.
Guitar 1
e---------------------------------------------------------------10-12-13-15-17-20^-17-15-13-15-13-|
B--6-5-6-8-6-8-10-11-10-6-9-10-5-8-6-5-6-2-3---------10-9-10-11-----------------------------------|
G--------------------------------------------1-2-3-2----------------------------------------------|
D-------------------------------------------------------------------------------------------------|
A-------------------------------------------------------------------------------------------------|
E-------------------------------------------------------------------------------------------------|
Guitar 2
e--10------------------------------------------------------------------------------------------|
B-----10-11-10-8-6-2-3-6-8-9-10-6-8-2-3-10-9-6-8-3-2-3-6-5-2-3-----------2-3-5-8-6-5-6-5-3-2---|
G--------------------------------------------------------------2-3-0-3-2---------------------3-|
D----------------------------------------------------------------------------------------------|
A----------------------------------------------------------------------------------------------|
E----------------------------------------------------------------------------------------------|

Bridge 3 (2:57)
Guitar 1
e--12-13-12-9~-9-10-12-10h12p10p9-10-9h10p9p6-9-5-6-5p6h5p3-5-3h5p3p1-3-1-0-1-0----------------|
B----------------------------------------------------------------------------3-2-3-2-----------|
G---------------------------------------------------------------------------------3-2-3-0-2-0--|
D------------------------------------------------------------------------------------------3-2-|
A----------------------------------------------------------------------------------------------|
E----------------------------------------------------------------------------------------------|

Guitar 2
e--6-8-6-5~--5-6-8-6h8p6-5-6-5h6p5-3-5-1-3-1h3p1p0-------------------------------|
B--------------------------------------------------6-5h6p5p3-5-2-3---------------|
G------------------------------------------------------------------2-3-0-2-------|
D--------------------------------------------------------------------------3-2---|
A--------------------------------------------------------------------------------|
E--------------------------------------------------------------------------------|
Bridge 4
e-5-5-5-5--5-5-5-5-|
B-6-6-6-6--5-5-5-5-|
G-7-7-7-7--6-6-6-6-|
D-7-7-7-7--7-7-7-7-|
A-5-5-5-5--7-7-7-7-|
E-5-5-5-5--5-5-5-5-|

Fill 2
e----------5--|
B------5-6----|
G--6-7--------|
D-------------|
A-------------|
E-------------|

Order:
intro
verse 1 x4
pre-chorus x4
chorus
bridge 1
verse 2 x4
bridge 2
prechorus x4
chorus
fill 1 x4
solo
Bridge 3
verse x10 (gradually speeding up)
Bridge 4 x8
chorus
fill 2
bridge 4 x16

| /  slide up
| \  slide down
| h  hammer-on
| p  pull-off
| ~  vibrato
| +  harmonic
| x  Mute note
===============================================================================
Добавлено: 06.11.2013
Другие материалы по этой песне:
  • Аккорды и текст

Страница создана 29.02.2012
http://primanota.ru/rx-bandits/epoxi-lips-chords.htm
Привет, Гость.
Предлагаем пройти революционный курс по гитаре.
Подарок от PrimaNota.Ru, забирай!