PrimaNota.ru - самый крупный в мире бесплатный архив песенных текстов, аккордов, табулатур и нот


Rx Bandits - Apparition - текст песни, таба, бас-таба, видео

Регистрация Запомнить меня
Войти через:  Facebook Google Twitter Vk Yandex Mail.ru

Rx Bandits - Apparition - текст песни, таба, бас-таба, видео

Печатать
Просмотров: 93
Apparition

Intro 1
Guitar 1
e--------------------------------------------------------------------------|
B--------------------------------------------------------------------------|
G--------------------------------------------------------------------------|
D-------3-5-3-----------------------------3-5-3h5p3------------------------|
A--3--6-------6--3-------3-5-3---3---3--6------------6--3-------3-5-3---3--|
E-------------------3--6-------6---------------------------3--6-------6----|

Guitar 2
e---------3----------------3----------------3---------------------3--------|
B---------4----------------3----------------4---------------------3--------|
G---------5----------------3----------------5---------------------3--------|
D---------5----------------5----------------5---------------------5--------|
A---------3----------------5----------------3---------------------5--------|
E---------3----------------3----------------3---------------------3--------|

Intro 2
Guitar 1
e--------------------------------------------|-----------------------------------|
B--------------------------------------------|-----------------------------------|
G--------------------------------------------|-----------------------------------|
D-------3-5-3h5p3-----------------------(x3)-|------3-5-3h5p3--------------------|
A--3--6-----------6--3-------3-5-3---3-------|-3--6-----------6--3-------3-5-3-6-|
E-----------------------3--6-------6---------|----------------------3--6---------|

Guitar 2
e---------3--------------------3-------------|--------3--------------------3-----|
B---------4--------------------3-------------|--------4--------------------3-----|
G---------5--------------------3-------------|--------5--------------------3-----|
D---------5--------------------5--------(x3)-|--------5--------------------5-----|
A---------3--------------------5-------------|--------3--------------------5-----|
E---------3--------------------3-------------|--------3--------------------3-----|

Verse
e--3-3--x-3--3-3--x--3--3-3-3--x--3--3-3-3-3--|
B--4-4--x-4--3-3--x--3--4-4-4--x--4--3-3-3-3--|
G--5-5--x-5--3-3--x--3--5-5-5--x--5--3-3-3-3--|
D--5-5--x-5--5-5--x--5--5-5-5--x--5--5-5-5-5--|
A--3-3--x-3--5-5--x--5--3-3-3--x--3--5-5-5-5--|
E--3-3--x-3--3-3--x--3--3-3-3--x--3--3-3-3-3--|

Pre-Chorus
e--1-1-1-1--x--1--3-3-3--x--3------|--3-3--x--3------|
B--1-1-1-1--x--1--4-4-4--x--4------|--3-3--x--3------|
G--1-1-1-1--x--1--5-5-5--x--5------|--4-4--x--4-(x2)-|
D--3-3-3-3--x--3--5-5-5--x--5-(x3)-|--5-5--x--5------|
A--3-3-3-3--x--3--3-3-3--x--3------|--5-5--x--5------|
E--1-1-1-1--x--1--3-3-3--x--3------|--3-3--x--3------|

Chorus
   Cm         Bb                           Fm       Bb                Gm     
e--3-3-3-x-3--6-6-x-6--3-3-3-x-3--6-6-x-6--1-1-x-1--1-1-x-1--3-3-x-3--3-3-3-x-3-|
B--4-4-4-x-4--6-6-x-6--4-4-4-x-4--6-6-x-6--1-1-x-1--3-3-x-3--4-4-x-4--3-3-3-x-3-|
G--5-5-5-x-5--7-7-x-7--5-5-5-x-5--7-7-x-7--1-1-x-1--3-3-x-3--5-5-x-5--3-3-3-x-3-|
D--5-5-5-x-5--8-8-x-8--5-5-5-x-5--8-8-x-8--3-3-x-3--3-3-x-3--5-5-x-5--5-5-5-x-5-|
A--3-3-3-x-3--8-8-x-8--3-3-3-x-3--8-8-x-8--3-3-x-3--1-1-x-1--3-3-x-3--5-5-5-x-5-|
E--3-3-3-x-3--6-6-x-6--3-3-3-x-3--6-6-x-6--1-1-x-1--1-1-x-1--3-3-x-3--3-3-3-x-3-|

e--3-3-3-x-3--1-1-x-1--1-1-x-1--1-1-x-1--3-3-3-x-3--3------|
B--4-4-4-x-4--3-3-x-3--1-1-x-1--3-3-x-3--4-4-4-x-4--3------|
G--5-5-5-x-5--3-3-x-3--1-1-x-1--3-3-x-3--5-5-5-x-5--4------|
D--5-5-5-x-5--3-3-x-3--3-3-x-3--3-3-x-3--5-5-5-x-5--5-(x8)-|
A--3-3-3-x-3--1-1-x-1--3-3-x-3--1-1-x-1--3-3-3-x-3--5------|
E--3-3-3-x-3--1-1-x-1--1-1-x-1--1-1-x-1--3-3-3-x-3--3------|

Fill 1
e----------------------------------------------|------------------------------------|
B--------6-8-6h8p6-----------------------------|-------6-8-6h8p6--------------------|
G--5--8------------8--5-------7-7p5----5-------|-5--8------------8--5-------5-7-5-8-|
D------------------------5--8------8-8----(x3)-|-----------------------5--8---------|
A----------------------------------------------|------------------------------------|
E----------------------------------------------|------------------------------------|

Order:
intro 1
Intro 2
Verse x2
Pre-Chorus
Chorus
Intro 2
Verse x2
Chorus
Fill 1
Pre-Chorus
Chorus
Intro 2

Добавлено: 14.09.2013
Другие материалы по этой песне:
  • Аккорды и текст

Страница создана 29.05.2012
http://primanota.ru/rx-bandits/apparition-chords.htm
Привет, Гость.
Предлагаем пройти революционный курс по гитаре.
Подарок от PrimaNota.Ru, забирай!