PrimaNota.ru - самый крупный в мире бесплатный архив песенных текстов, аккордов, табулатур и нот


Rx Bandits - ...And The Battle Begun - текст песни, таба, бас-таба, видео

Регистрация Запомнить меня
Войти через:  Facebook Google Twitter Vk Yandex Mail.ru

Rx Bandits - ...And The Battle Begun - текст песни, таба, бас-таба, видео

Печатать
Просмотров: 80
-------------------------------------------------------------------------------
			     ...And the Battle Begun, Rx Bandits
-------------------------------------------------------------------------------
Tabbed by:Andy Culbreath
Email:cheeseomelet@gmail.com

Tuning:Standard

Intro
Guitar 1
e------------------------------------|-------------------------------|
B------------------------------------|-------------------------------|
G--8----------------8----------------|--------------------8----------|
D--8-(x48)-10-------8-(x32)-10-------|--6-6-6-6--8-8-8-8--8-(x8)--x3-|
A--6-------10-(x16)-6-------10-(x16)-|--6-6-6-6--8-8-8-8--6----------|
E-----------8----------------8-------|--4-4-4-4--6-6-6-6-------------|
				      pm. .      . . .    . . . . . . 
e-----------------------------|
B-----------------------------|
G-----------------------------|
D--6-6-6-6--8-8-8-8--10-------|
A--6-6-6-6--8-8-8-8--10-(x72)-|
E--4-4-4-4--6-6-6-6---8-------|
 pm. . .    . . .    . . . .
Guitar 2
e-----------------------------------|
B--3-3-3-3-3-3----------------------|
G--------------------------3--------|
D----------------------5h6----------|
A--------------------6-------6------|
E-----------------------------------| Improvise..
Verse
e------------------------------------------------------------|
B------------------------------------------------------------|
G--5------7------8-------------5------7------8---------------|
D--5-(x6)-7-(x6)-8-(x6)-5------5-(x6)-7-(x6)-8-(x2)-5--------| x2
A--3------5------6------5-(x6)-3------5------6------5-(x2)---|
E-----------------------3---------------------------3--------|
pm . . . . . . . . . . . . . . . . . . . . . . . . . . . . . .
Fill 1
e-----------------------------|
B-----------------------------|
G-----------------------------|
D-----5-----3-----5--------x4-|
A--3-3-3-5-5-5-6-6-5----5-----|
E--------------------3-3-3----|

Pre-Chorus
e-------------------------------------|
B-------------------------------------|
G-------------------------------------|
D--3-3-3-3--5-5-5-5--6-6-6-6--9-------|
A--3-3-3-3--5-5-5-5--6-6-6-6--9-(x8)--|
E--1-1-1-1--3-3-3-3--4-4-4-4--7-------|

Chorus 
Guitar 1
e--3-3-3-3-3-3-3------|-3-3-3-3-3-3-3-|-------------------------|
B--4-4-3-4-4-4-4------|-4-4-4-4-4-4-4-|-------------------------|
G--5-5-3-5-5-5-5--(x3)|-5-5-5-5-5-5-5-|-------------------------|
D--5-5-5-5-5-5-5------|-5-5-5-5-5-5-5-|--6------3-5-5-5-8-9-9-9-|
A--3-3-5-3-3-3-3------|-5-5-5-5-5-5-5-|--6-(x8)-3-5-5-5-8-9-9-9-|
E--3-3-3-3-3-3-3------|-3-3-3-3-3-3-3-|--4------1-3-3-3-6-7-7-7-|

Guitar 2
e---------------------------|---------|--------------------|-----------------|
B---------------------------|---------|--------------------|-----------------|
G---------------------------|---------|--------55----------|-----------------|
D--10-10-8-10-10-10-10-(x3)-|-10------|---------------(x2)-|-3-5-5-5-8-9-9-9-|
A--10-10-8-10-10-10-10------|-10 (x8)-|-----66----66-------|-3-5-5-5-8-9-9-9-|
E---8--8-6--8--8--8--8------|--8------|--44----------44----|-1-3-3-3-6-7-7-7-|

Fill 2 (2:17)
Guitar 1
e---------------------------------------------------------------------------|
B-------------77-88-------------77-88-------------------77-88---------------|
G--5555-77-88-------88-55-77-44-------88-55-77-44-55----------88-55-77-44-5-|
D----------------------------------------------------66---------------------|
A---------------------------------------------------------------------------|
E---------------------------------------------------------------------------|

Guitar 2
e----------------------------------------------------------------------------------|
B--------------77-8-----------------------------------11-11-1010-99-88-66-44-33-00-|
G--5555-77-88-------88-77-55-44-55-00-88-11-11-1212-8------------------------------|
D----------------------------------------------------------------------------------|
A----------------------------------------------------------------------------------|
E----------------------------------------------------------------------------------|

Bridge 
Tremolo Picking
e--14-16-17-19/--|----------12-10-9-7-9-7-5-7-9----5-9-12-10h12p10-|----9-12-14-16-17^-16-14-12-14-9-12-7-
B----------------|----10-14----------------------7-----------------|-10-----------------------------------
G----------------|-11----------------------------------------------|--------------------------------------
D----------------|-------------------------------------------------|--------------------------------------
A----------------|-------------------------------------------------|--------------------------------------
E----------------|-------------------------------------------------|--------------------------------------

e--9-12-14-17p16h17-14-12------|-----------------------------------------------|
B------------------------------|-----------------5---------7-5-------5---------|
G------------------------------|-------4-6---------6-------------------6-------|
D---------------------------x2-|-4-6-7-----4-6-7-----4-6-7-----4-6-7--------x2-|
A------------------------------|-----------------------------------------------|
E------------------------------|-----------------------------------------------|

e-----------------------------------------------|-----------------------------------------|
B-----------------------------------------------|-----------------------------------------|
G-----------------------------------------------|---------------------------------4-4--4--|
D------------------2---------4-2-------2-----x2-|------------------2---------4-2--4-4--4--|
A--------2-4---------4-------------------4------|--------2-4---------4------------2-2--2--|
E--2-4-5-----2-4-5-----2-4-5-----2-4-5----------|--2-4-5-----2-4-5-----2-4-5--------------|

e--2-------------5------4---------|------------------------------------------|
B--2-------------5------6---------|------------------------------------------|
G--3------1------6------6---------|------------------------------------------|
D--4-(x8)-2-(x6)-7-(x8)-6-(x8)-x2-|------------------3---------5-3-------3---|
A--4------2------7------4---------|--------3-5---------5-------------------5-|
E--2-------------5------4---------|--3-5-6-----3-5-6-----3-5-6-----3-5-6-----|

E---------------------------------|
B---------------------------------|
G---------------------------------|
D -----------------3---------5-3--|
A -------3-5---------5------------|
E 3-5-6------3-5-6-----3-5-6------|

chorus 
Outro
e------------------------------------|
B------------------------------------|
G------------------------------------|
D--3--5-5-5--8-9-9-9--9-9-9-9--10-10-|
A--3--5-5-5--8-9-9-9--9-9-9-9--10-10-|
E--1--3-3-3--6-7-7-7--7-7-7-7---8--8-|

Order:
Intro
Verse x2
Fill 1
Verse x2
Pre-Chorus
Verse x5
Pre-Chorus
Chorus x2
Fill 2
Verse x2
Pre-chorus 
chorus x2
Bridge 
Outro

| /  slide up
| \  slide down
| h  hammer-on
| p  pull-off
| ~  vibrato
| +  harmonic
| x  Mute note
===============================================================================
Добавлено: 01.06.2013
Другие материалы по этой песне:
  • Аккорды и текст

Страница создана 22.03.2012
http://primanota.ru/rx-bandits/and-the-battle-begun-chords.htm
Привет, Гость.
Предлагаем пройти революционный курс по гитаре.
Подарок от PrimaNota.Ru, забирай!