PrimaNota.ru - самый крупный в мире бесплатный архив песенных текстов, аккордов, табулатур и нот


Rx Bandits - Analog Boy - текст песни, таба, видео

Регистрация Запомнить меня
Войти через:  Facebook Google Twitter Vk Yandex Mail.ru

Rx Bandits - Analog Boy - текст песни, таба, видео

Печатать
Просмотров: 131
*********************************
* Song   : Analog Boy		*
* Artist : Rx Bandits		*
* Album  : Progress		*
* Year   : 2001			*
*********************************
    Tabbed by: Bill Streckfus

Tempo = 195 bpm

Intro:
------------------------------------------------------------------------------

Guitar 1:

   G#m                F#                 B
E|------------------|------------------|------------------|------------------|
B|------------------|------------------|------------------|------------------|
G|---------4-4------|---------6-6------|---------8-8------|---------8-8------| 
D|-6-6-6-6-----6-6--|-8-8-8-8-----8-8--|-9-9-9-9-----9-9--|-9-9-9-9-----9-9--|
A|------------------|------------------|------------------|------------------|
E|------------------|------------------|------------------|------------------|
   p.m.p.m.p.m.p.m.p.m.p.m.p.m.p.m.p.m   p.m.p.m.p.m.p.m.p.m.p.m.p.m.p.m.p.m

   E                  F#sus4             G#m                
E|------------------|------------------|------------------|------------------|
B|------------------|------------------|------------------|------------------|
G|---------4-4------|---------4-4------|---------4-4------|---------4-4------| 
D|-6-6-6-6-----6-6--|-4-4-4-4-----4-4--|-6-6-6-6-----6-6--|-6-6-6-6-----6-6--|
A|------------------|------------------|------------------|------------------|
E|------------------|------------------|------------------|------------------|
   p.m.p.m.p.m.p.m.p.m.p.m.p.m.p.m.p.m   p.m.p.m.p.m.p.m.p.m.p.m.p.m.p.m.p.m

   G#m                F#                 B
E|------------------|------------------|------------------|------------------|
B|------------------|------------------|------------------|------------------|
G|---------4-4------|---------6-6------|---------8-8------|1111-----8-8------| 
D|-6-6-6-6-----6-6--|-8-8-8-8-----8-8--|-9-9-9-9-----9-9--|-----9-9-----9-9--|
A|------------------|------------------|------------------|------------------|
E|------------------|------------------|------------------|------------------|
   p.m.p.m.p.m.p.m.p.m.p.m.p.m.p.m.p.m   p.m.p.m.    p.m.       p.m.    p.m

   E                  F#sus4             G#m
E|------------------|------------------|------------------|------------------|
B|------------------|------------------|------------------|------------------|
G|---------4-4------|---------4-4------|---------4-4------|---------4-4------| 
D|-6-6-6-6-----6-6--|-4-4-4-4-----4-4--|-6-6-6-6-----6-6--|-6-6-6-6-----6-6--|
A|------------------|------------------|------------------|------------------|
E|------------------|------------------|------------------|------------------|
   p.m.p.m.p.m.p.m.p.m.p.m.p.m.p.m.p.m   p.m.p.m.p.m.p.m.p.m.p.m.p.m.p.m.p.m

Verse:
------------------------------------------------------------------------------

Guitars 1 & 2:

   G#m                F#/A#              B
E|-----7-------4----|-----6-------6----|----11-------7----|-----7------11----|
B|-----9-------4----|-----7-------7----|----12-------7----|-----7------12----|
G|-----8-------4----|-----6-------6----|----11-------8----|-----8------11----|
D|------------------|------------------|------------------|------------------|
A|------------------|------------------|------------------|------------------|
E|------------------|------------------|------------------|------------------|
  
   E       F#                            G#m
E|-----4-------2----|-----2-------2----|-----4-------4----|-----4-------4----|
B|-----5-------2----|-----2-------2----|-----4-------4----|-----4-------4----|
G|-----4-------3----|-----3-------3----|-----4-------4----|-----4-------4----|
D|------------------|------------------|------------------|------------------| 
A|------------------|------------------|------------------|------------------|
E|------------------|------------------|------------------|------------------|

   G#m                F#/A#              B
E|-----7-------4----|-----6-------6----|----11-------7----|-----7------11----|
B|-----9-------4----|-----7-------7----|----12-------7----|-----7------12----|
G|-----8-------4----|-----6-------6----|----11-------8----|-----8------11----|
D|------------------|------------------|------------------|------------------|
A|------------------|------------------|------------------|------------------|
E|------------------|------------------|------------------|------------------|

   E       F#
E|-----4-------2----|-----2-------2----|------------------|------------------|
B|-----5-------2----|-----2-------2----|------------------|------------------|
G|-----4-------3----|-----3-------3----|------------------|------------------|
D|------------------|------------------|------------------|------------------| 
A|------------------|------------------|------------------|------------------|
E|------------------|------------------|------------------|------------------|
 
Chorus:
------------------------------------------------------------------------------

Guitars 1 & 2 (distorted):

   B5      F#5        G#5     D#5        E5      D#5        E5      F#5
E|------------------|------------------|------------------|------------------|
B|------------------|------------------|------------------|------------------|
G|-4---x-x----------|---------8---x-x--|---------8---x-x--|------------------|
D|-4---x-x-4---x-x--|-6---x-x-8---x-x--|-2---x-x-8---x-x--|-2---x-x-4-4-4-4--| x 3
A|-2---x-x-4---x-x--|-6---x-x-6---x-x--|-2---x-x-6---x-x--|-2---x-x-4-4-4-4--|
E|---------2---x-x--|-4---x-x----------|-0---x-x----------|-0---x-x-2-2-2-2--|

   B5      F#5        G#5     D#5        E5      D#5        E5      F#5  
E|------------------|------------------|------------------|------------------|
B|------------------|------------------|------------------|------------------|
G|-4---x-x----------|---------8---x-x--|---------8---x-x--|------------------|
D|-4---x-x-4---x-x--|-6---x-x-8---x-x--|-2---x-x-8---x-x--|-2---x-x-4-4------| 
A|-2---x-x-4---x-x--|-6---x-x-6---x-x--|-2---x-x-6---x-x--|-2---x-x-4-4-4-4--|
E|---------2---x-x--|-4---x-x----------|-0---x-x----------|-0---x-x-2-2-2-2--|
 								        p.m.

Verse 2:
------------------------------------------------------------------------------

Guitar 1:

   G#m                F#/A#              B           
E|------------------|------------------|------------------|------------------| 
B|-------4----------|-------7----------|-------7----------|-----------12/----| 
G|---------4--------|---------6--------|---------8--------|-------8----------| 
D|-----6-----6------|-----8-----8------|-----9-----9------|-----9---9--------| 
A|------------------|------------------|------------------|------------------|
E|------------------|------------------|------------------|------------------|
       p.m.p.m.		  p.m.p.m.	     p.m.p.m.           p.m.p.m.

   EM7                F#7                G#m
E|------------------|------------------|------------------|-------------4----| 
B|-------4----------|-------5----------|-------4----------|-------------4----| 
G|---------4--------|---------3--------|---------4--------|-------------4----| 
D|-----2-----2------|-----4-----4------|-----6-----6------|------------------| 
A|------------------|------------------|------------------|------------------|
E|------------------|------------------|------------------|------------------|
       p.m.p.m.		  p.m.p.m.	     p.m.p.m.           

Guitar 2 (light):

   G#m                F#/A#              B
E|------------------|------------------|------------------|------------------| 
B|------------------|------------------|------------------|------------------| 
G|------------------|------------------|------------------|------------------|
D|------------------|------------------|------------------|------------------|
A|------------------|------------------|------------------|------------------|
E|------------------|------------------|------------------|------------------|  

   EM7                F#7                G#m
E|------------------|------------------|------------------|-------------4----|
B|------------------|------------------|------------------|-------------4----|
G|---------4-4------|---------4-4------|---------4-4------|---------4-4-4----| 
D|-6-6-6-6-----6-6--|-4-4-4-4-----4-4--|-6-6-6-6-----6-6--|-6-6-6-6----------|
A|------------------|------------------|------------------|------------------|
E|------------------|------------------|------------------|------------------| 

Then back to Verse 1 progression.

Chorus 2:
------------------------------------------------------------------------------

Guitars 1 & 2 (distorted):

   B5      F#5        G#5     D#5        E5      D#5        E5      F#5
E|------------------|------------------|------------------|------------------|
B|------------------|------------------|------------------|------------------|
G|-4---x-x----------|---------8---x-x--|---------8---x-x--|------------------|
D|-4---x-x-4---x-x--|-6---x-x-8---x-x--|-2---x-x-8---x-x--|-2---x-x-4-4-4-4--| x 3
A|-2---x-x-4---x-x--|-6---x-x-6---x-x--|-2---x-x-6---x-x--|-2---x-x-4-4-4-4--|
E|---------2---x-x--|-4---x-x----------|-0---x-x----------|-0---x-x-2-2-2-2--|

   B5      F#5        G#5     D#5        E5      D#5        E5      F#5  
E|------------------|------------------|------------------|------------------|
B|------------------|------------------|------------------|------------------|
G|-4---x-x----------|---------8---x-x--|---------8---x-x--|------------------|
D|-4---x-x-4---x-x--|-6---x-x-8---x-x--|-2---x-x-8---x-x--|-2---x-x-4--------| 
A|-2---x-x-4---x-x--|-6---x-x-6---x-x--|-2---x-x-6---x-x--|-2---x-x-4--------|
E|---------2---x-x--|-4---x-x----------|-0---x-x----------|-0---x-x-2--------|
 								        

Bridge:
------------------------------------------------------------------------------

Guitar 1:

   G#m                F#                 E                  E5 add b5 
E|-x-x-4---x-x-5h6--|---x-2----x-x-2-2-|-x-x-4---x-4-x-x--|-6-x-x-6-x-x-6-4--| 
B|-x-x-4---x-x-4----|---x-2----x-x-2-2-|-x-x-5---x-5-x-x--|-5-x-x-5-x-x-5-5--|  
G|-x-x-4---x-x------|---x-3----x-x-3-3-|-x-x-4---x-4-x-x--|-4-x-x-4-x-x-4-4--| 
D|------------------|------------------|------------------|------------------| x 3
A|------------------|------------------|------------------|------------------|
E|------------------|------------------|------------------|------------------|

   G#m                F#
E|-x-x-4---x-x-5h6--|---x-2----x-x-2-2-|------------------|------------------| 
B|-x-x-4---x-x-4----|---x-2----x-x-2-2-|------------------|------------------|  
G|-x-x-4---x-x------|---x-3----x-x-3-3-|------------------|------------------| 
D|------------------|------------------|------------------|------------------|
A|------------------|------------------|------------------|------------------|
E|------------------|------------------|------------------|------------------| 

Add additional muted strokes after each repeat.

Guitars 1 & 2 (distorted):

   E5    B5    F#5                       E     G#5   F#5
E|------------------|------------------|------------------|------------------| 
B|------------------|------------------|------------------|------------------| 
G|-------4----------|------------------|------------------|------------------|
D|-2-----4-----4----|------------------|-2-----6-----4----|------------------|
A|-2-----2-----4----|------------------|-2-----6-----4----|------------------|
E|-0-----------2----|------------------|-0-----4-----2----|------------------| 

Chorus 3:
------------------------------------------------------------------------------

Guitar 1 (distorted):

   B5      F#5        G#5     D#5        E5      D#5        E5      F#5
E|------------------|------------------|------------------|------------------|
B|------------------|------------------|------------------|------------------|
G|-4---x-x----------|---------8---x-x--|---------8---x-x--|------------------|
D|-4---x-x-4---x-x--|-6---x-x-8---x-x--|-2---x-x-8---x-x--|-2---x-x-4-4-4-4--| 
A|-2---x-x-4---x-x--|-6---x-x-6---x-x--|-2---x-x-6---x-x--|-2---x-x-4-4-4-4--|
E|---------2---x-x--|-4---x-x----------|-0---x-x----------|-0---x-x-2-2-2-2--|

   B5      F#5        G#5     D#5        E5        B5  F#5
E|------------------|------------------|------------------|------------------|
B|------------------|------------------|------------------|------------------|
G|-4---x-x----------|---------8---x-x--|-----------4------|------------------|
D|-4---x-x-4---x-x--|-6---x-x-8---x-x--|-2---2---2-4---4--|-------4-4-4-4-4--| 
A|-2---x-x-4---x-x--|-6---x-x-6---x-x--|-2---2---2-2---4--|-------4-4-4-4-4--|
E|---------2---x-x--|-4---x-x----------|-0---0---0-----2--|-------2-2-2-2-2--|

Guitar 2 (distorted):

   B5                                    E5      D#5        E5      F#5
E|------------------|------------------|------------------|------------------|
B|------------------|------------------|------------------|------------------|
G|-4----------------|------------------|---------8---x-x--|------------------|
D|-4----------------|------------------|-2---x-x-8---x-x--|-2---x-x-4-4-4-4--| 
A|-2----------------|------------------|-2---x-x-6---x-x--|-2---x-x-4-4-4-4--|
E|------------------|------------------|-0---x-x----------|-0---x-x-2-2-2-2--|

   B5                                    E5        B5  F#5
E|------------------|------------------|------------------|------------------|
B|------------------|------------------|------------------|------------------|
G|-4----------------|------------------|-----------4------|------------------|
D|-4----------------|------------------|-2---2---2-4---4--|-------4-4-4-4-4--|  
A|-2----------------|------------------|-2---2---2-2---4--|-------4-4-4-4-4--|
E|------------------|------------------|-0---0---0-----2--|-------2-2-2-2-2--|

Guitars 1 & 2 (distorted):

   B5      F#5        G#5     D#5        E5      D#5        E5      F#5  
E|------------------|------------------|------------------|------------------|
B|------------------|------------------|------------------|------------------|
G|-4---x-x----------|---------8---x-x--|---------8---x-x--|------------------|
D|-4---x-x-4---x-x--|-6---x-x-8---x-x--|-2---x-x-8---x-x--|-2---x-x-4-4-4-4--| x 2
A|-2---x-x-4---x-x--|-6---x-x-6---x-x--|-2---x-x-6---x-x--|-2---x-x-4-4-4-4--|
E|---------2---x-x--|-4---x-x----------|-0---x-x----------|-0---x-x-2-2-2-2--|

Guitar 3 (distorted):

E|------------------|------------------|------------------|------------------| 
B|------------------|------------------|------------------|------------------| 
G|-4---x-x-6---x-x--|-8---x-x11---x-x--|-9---x-x-8---x-x--|-9---x-x-6---x-x--|
D|------------------|------------------|------------------|------------------| x 2
A|-2---x-x-4---x-x--|-6---x-x-9---x-x--|-7---x-x-6---x-x--|-7---x-x-4---x-x--|
E|------------------|------------------|------------------|------------------| 

Guitars 1 & 2 (distorted)

   B       C#m        D#m                E5      D#5        E5      F#5
E|------------------|------------------|------------------|------------------| 
B|------------------|------------------|------------------|------------------| 
G|-4-4-4-4-6-6-6-6--|-8-8-8-8-8-8-8-8--|---------8---x-x--|------------------|
D|------------------|------------------|-2---x-x-8---x-x--|-2---x-x-4-4-4-4--| x 2
A|-2-2-2-2-4-4-4-4--|-6-6-6-6-6-6-6-6--|-2---x-x-6---x-x--|-2---x-x-4-4-4-4--|
E|------------------|------------------|-0---x-x----------|-0---x-x-2-2-2-2--|

Guitar 3 (distorted):

   B       C#m        D#m                E5      D#5        E5      F#5
E|------------------|------------------|------------------|------------------| 
B|------------------|------------------|------------------|------------------| 
G|------------------|------------------|------------------|------------------|
D|------------------|------------------|------------------|------------------|
A|------------------|------------------|------------------|------------------|
E|------------------|------------------|------------------|------------------| 

   B       C#m        D#m                E5      D#5        E5      F#5
E|------------------|------------------|------------------|------------------| 
B|------------------|------------------|------------------|------------------| 
G|-8-8-8-8-9-9-9-9--|1111111113131313--|------------------|------------------|
D|------------------|------------------|------------------|------------------|
A|-6-6-6-6-7-7-7-7--|-9-9-9-911111111--|------------------|------------------|
E|------------------|------------------|------------------|------------------| 

Outro
------------------------------------------------------------------------------

Guitars 1 & 2 (distorted):

   E5        G#5 F#5                     E5        B5  F#5
E|------------------|------------------|------------------|------------------|
B|------------------|------------------|------------------|------------------|
G|------------------|------------------|-----------4------|------------------|
D|-2---2---2-6---4--|------------------|-2---2---2-4---4--|------------------|  
A|-2---2---2-6---4--|------------------|-2---2---2-2---4--|------------------|
E|-0---0---0-4---2--|------------------|-0---0---0-----2--|------------------|

   E5        G$5 F#5
E|------------------|------------------|
B|------------------|------------------|
G|------------------|------------------|
D|-2---2---2-6---4--|------------------| 
A|-2---2---2-6---4--|------------------|
E|-0---0---0-4---2--|------------------|

Guitar 1 (distorted):

   B                  E       B
E|------------------|------------------|
B|------------------|------------------|
G|-4-4-4-4-4-4-4-4--|-4-4-4-4-4-4-4----|
D|------------------|------------------|
A|-2-2-2-2-2-2-2-2--|-2-2-2-2-2-2-2----|
E|------------------|------------------|

Guitar 2 (distorted):
 
   B                  E       B
E|------------------|------------------|
B|------------------|------------------| 
G|---------1111111--|13131313111111----|
D|------------------|------------------|
A|---------9-9-9-9--|11111111-9-9-9----|
E|------------------|------------------|

Guitar 3 (distorted):

   B                  E       B
E|------------------|------------------|
B|------------------|------------------| 
G|---------8-8-8-8--|-9-9-9-9-8-8-8----|
D|------------------|------------------|
A|---------6-6-6-6--|-7-7-7-7-6-6-6----|
E|------------------|------------------|


-----------------------------------------------------------------------------
If this tab was helpful and you're as big of a bandits fan as I am, be on the
lookout for more Rx Bandits tabs by yours truly.
Добавлено: 07.09.2013
Другие материалы по этой песне:
  • Аккорды и текст

Страница создана 04.03.2012
http://primanota.ru/rx-bandits/analog-boy-chords.htm
Привет, Гость.
Предлагаем пройти революционный курс по гитаре.
Подарок от PrimaNota.Ru, забирай!