PrimaNota.ru - самый крупный в мире бесплатный архив песенных текстов, аккордов, табулатур и нот


Rx Bandits - A Mouth Full Of Hollow Threats - текст песни, бас-таба, видео

Регистрация Запомнить меня
Войти через:  Facebook Google Twitter Vk Yandex Mail.ru

Rx Bandits - A Mouth Full Of Hollow Threats - текст песни, бас-таба, видео

Печатать
Просмотров: 79
Rx Bandits
...And The Battle Begun
"A Mouth Full of Hollow Threats

Tabbed by: Alex Z.


G----------------|
D----------------|
A-2-4-5-4-2------|
E-----------5-2--|

Verse:
G---------------------------|
D---------------------------|
A------------2-4-5-4-2------|
E-2-022-02-2-----------5-2--|

Chorus:
G-----------------------------|
D----------6------------------|
A-2-22--44---4-7-99-7/9-7-----|
E-------------------------9-7-| repeat once

G-------------------------------------|
D------------7-6----------------------|
A-22-2-4~--5-----7-5------5-55---7-77-|
E--------------------5-55-------------| (x1)

Verse 2:
G-------------------------------------------------|
D-------------------------------------------------|
A-2-4-5-4-2----------------2-4-5-4-2--------------|
E-----------5-4-2---00-22------------5-2---00--22-| (a few times)

play chorus

G--------|
D--------|
A--------|
E-00-22--|

Bridge:
G--9----------------------------------------------------|
D----9---------------7---------5---5-7-5-9-7-5/7/5------|
A------7------7----7---7---7-7---7-----------------7-5--|
E----------55---5---------------------------------------| (x4)

G--7---------------------------------------------------|
D----7---------------5---------3---3-5-3-7-5-3/5/3-----|
A------5------5----5---5---5-5---5-----------------5-3-|
E----------33---3--------------------------------------| (x2)

G-----------------|
D-4-2---2---------|
A-----4---4-2-----|
E-------------5-2-| then verse 2

then chorus

ending:
G--------|
D--------|
A--------|
E--00-22-|
Добавлено: 28.08.2013
Другие материалы по этой песне:
  • Аккорды и текст

Страница создана 24.06.2012
http://primanota.ru/rx-bandits/a-mouth-full-of-hollow-threats-chords.htm
Привет, Гость.
Предлагаем пройти революционный курс по гитаре.
Подарок от PrimaNota.Ru, забирай!