PrimaNota.ru - самый крупный в мире бесплатный архив песенных текстов, аккордов, табулатур и нот


Rx Bandits - 1980 - текст песни, таба, бас-таба, видео

Регистрация Запомнить меня
Войти через:  Facebook Google Twitter Vk Yandex Mail.ru

Rx Bandits - 1980 - текст песни, таба, бас-таба, видео

Печатать
Просмотров: 111
-------------------------------------------------------------------------------
			     1980 - Rx Bandits
-------------------------------------------------------------------------------
Tabbed by:Andy Culbreath
Email:cheeseomelet@gmail.com

Tuning:Standard

Intro
Guitar 1
e|-------------------------------------------------|---------------------------|
B|-------------------------------------------------|---------------------------|
G|------------------------7-7----------------------|---------------------------|
D|-------5--7--8-8--7--5------5--7--8-8--7--5-(x2)-|-2------7------5------6-6--|
A|--7-7--------------------------------------------|-2-(x7)-7-(x7)-5-(x7)-6-6--|
E|-------------------------------------------------|-0------5------3------4-4--|

e|-----------------------------------------|-------------------------------|
B|-----------------------------------------|-------------------------------|
G|------------------------7-7--------------|-------------------------------|
D|-------5--7--8-8--7--5------5--7--8-(x2)-|-2------7------5-5-x-x-6-6-x-x-|
A|--7-7------------------------------------|-2-(x7)-7-(x7)-5-5-x-x-6-6-x-x-|
E|-----------------------------------------|-0------5------3-3-x-x-4-4-x-x-|

Guitar 2
e|----------------------------------------------|---------------------------|
B|--7p0------8p0-------10p0-------8p0-----------|---------------------------|
G|-------9---------9----------9---------9-------|---------------------------|
D|-----------------------------------------(x2)-|-2------7------5------6-6--|
A|----------------------------------------------|-2-(x7)-7-(x7)-5-(x7)-6-6--|
E|----------------------------------------------|-0------5------3------4-4--|

e|---------------7---------10~-|-------------7p0--------------|-------------------------------|
B|---8p0-7p0-5p0---8p0-5p0-----|-8p0-7p0-5p0-----8p0-7p0-5p0--|-------------------------------|
G|-----------------------------|------------------------------|-------------------------------|
D|-----------------------------|------------------------------|-2------7------5-5-x-x-6-6-x-x-|
A|-----------------------------|------------------------------|-2-(x7)-7-(x7)-5-5-x-x-6-6-x-x-|
E|-----------------------------|------------------------------|-0------5------3-3-x-x-4-4-x-x-|

Verse
e--4-4--4-4--7-7--7-7--5-5-5-5--2-2-2-2--4-4--4-4--7-7--7-7--5-5-5-5-|
B--5-5--4-4--7-7--9-9--5-5-5-5--2-2-2-2--5-5--4-4--7-7--9-9--5-5-5-5-|
G--6-6--4-4--8-8--9-9--6-6-6-6--2-2-2-2--6-6--4-4--8-8--9-9--6-6-6-6-|
D--6-6--6-6--9-9--9-9--7-7-7-7--4-4-4-4--6-6--6-6--9-9--9-9--7-7-7-7-|
A--4-4--6-6--9-9--7-7--5-5-5-5--4-4-4-4--4-4--6-6--9-9--7-7--7-7-7-7-|
E-------4-4--7-7-------5-5-5-5--2-2-2-2-------4-4--7-7-------5-5-5-5-|

Bridge
e--7-7--7-7-7-|-7-7-7--7-7-7-|-4-4-4-4-4-4-4-4-|
B--9-9--9-9-9-|-7-7-7--7-7-7-|-5-5-5-4-4-4p5-5-|
G--9-9--9-9-9-|-8-8-8--8-8-8-|-6-6-6-6-6-6-6-6-|
D--9-9--9-9-9-|-9-9-9--9-9-9-|-6-6-6-6-6-6-6-6-|
A--7-7--7-7-7-|-9-9-9--9-9-9-|-4-4-4-4-4-4-4-4-|
E-------------|-7-7-7--7-7-7-|-4-4-4-4-4-4-4-4-|

Fill
e|--------7-----------------------|-4-4-4-4-4-4-4-4-|-7-7---9--9--3-3--4-4-|
B|----9-9---9-7-7-9p7---------7-9-|-5-5-5-4-4-4p5-5-|-8-8--10-10--3-3--4-4-|
G|--9-----------------6-9-6-9-----|-6-6-6-6-6-6-6-6-|-9-9--11-11--4-4--5-5-|
D|--------------------------------|-6-6-6-6-6-6-6-6-|-9-9--11-11--5-5--6-6-|
A|--------------------------------|-4-4-4-4-4-4-4-4-|-7-7---9--9--5-5--6-6-|
E|--------------------------------|-4-4-4-4-4-4-4-4-|-------------3-3--4-4-|

Fill 2
e|---------------------------------|
B|---------------------------------|
G|---------------------------------|
D|-2-2-2-2-2-2-7-7-7-7-7-7-5-5-6-6-|
A|-2-2-2-2-2-2-7-7-7-7-7-7-5-5-6-6-|
E|-0-0-0-0-0-0-5-5-5-5-5-5-3-3-4-4-|
p.m. . . . . . . . . . . . . . . . .
Order:
Intro
Verse x2
Bridge x4
Fill
Verse x2
(Improv.)
Bridge x4
Fill 2
Verse x2

| /  slide up
| \  slide down
| h  hammer-on
| p  pull-off
| ~  vibrato
| +  harmonic
| x  Mute note
===============================================================================
Добавлено: 28.11.2013
Другие материалы по этой песне:
  • Аккорды и текст

Страница создана 12.03.2012
http://primanota.ru/rx-bandits/1980-chords.htm
Привет, Гость.
Предлагаем пройти революционный курс по гитаре.
Подарок от PrimaNota.Ru, забирай!