PrimaNota.ru - самый крупный в мире бесплатный архив песенных текстов, аккордов, табулатур и нот


Rwake - Leviticus - таба, видео

Регистрация Запомнить меня
Войти через:  Facebook Google Twitter Vk Yandex Mail.ru

Rwake - Leviticus - таба, видео

Печатать
Просмотров: 67
Уроки эстрадного вокала в Санкт-Петербурге
Rwake - Leviticus tab


(Intro 0:00-0:59)

D#-------------------------------------------------------|
A#-------------------------------------------------------|
F#--14--12--10--9-10-9---7-----2--3--5---10---7----------|
C#-------------------------------------------------------|
G#--12--10--8---7-8--7----5-----0--1--3---8----5---------|
C#-------------------------------------------------------|



(Riff 1 - distorted 0:59-1:51)

D#----------------------------------------------------|
A#----------------------------------------------------|
F#----------------------------------------------------|
C#---0---2--3------0--2-3-2---------------------------|
G#---0---2--3------0--2-3-2---------------------------|
C#---0---2--3------0--2-3-2---------------------------|
           (x4)               (x3)

(Riff changes 1:52-1:59)

D#-----------------------------------------------------|
A#-----------------------------------------------------|
F#-----------------------------------------------------|
C#-----------------------------------------------------|
G#-----------------------------------------------------|
C#---0-2-3-5-4-3-2-------------------------------------|


(Riff 2 1:59-2:37)

D#-----------------------------------------------------------------|
A#-----------------------------------------------------------------|
F#----------10----------------11----------------6------------------|
C#-----9-10----10-9-----10-11----11-10------6-7---7-6--------------|
G#--7-----------------8-------------------4---------------3---6----|
C#--7-----------------8-------------------4---------------3---6----|


(Riff 3 2:37-2:50)

D#----------------------------------------------------------|
A#----------------------------------------------------------|
F#----------------------------------------------------------|
C#---11h12p11/8-11-7----7h8p7-3-7-3-2-----------------------|
G#----------------------------------------------------------|
C#--0-----------------0-------------------------------------|


(2:50-3:04)

D#----------------------------------------------------|
A#----------------------------------------------------|
F#----------------------------------------------------|
C#--0--11h12p11/8-11-7--0-7h8p7-3-7-3-2---------------|
G#--0--11h12p11/8-11-7--0-7h8p7-3-7-3-2---------------|
C#--0--11h12p11/8-11-7--0-7h8p7-3-7-3-2---------------|


(Riff 2 - 3:04-3:29)

D#-----------------------------------------------------------------|
A#-----------------------------------------------------------------|
F#----------10----------------11----------------6------------------|
C#-----9-10----10-9-----10-11----11-10------6-7---7-6--------------|
G#--7-----------------8-------------------4---------------3---6----|
C#--7-----------------8-------------------4---------------3---6----|


(3:29-3:35)

D#---------------------------------------------------------|
A#---------------------------------------------------------|
F#---------------------------------------------------------|
C#---11h12p11/8-11-7---7h8p7-3-7-3-2-----------------------|
G#---------------------------------------------------------|
C#--0----------------0-------------------------------------|


(3:35-3:49)

D#--------------------------------------------------|
A#--------------------------------------------------|
F#--------------------------------------------------|
C#--0--11h12p11/8-11-7--0-7h8p7-3-7-3-2-------------|
G#--0--11h12p11/8-11-7--0-7h8p7-3-7-3-2-------------|
C#--0--11h12p11/8-11-7--0-7h8p7-3-7-3-2-------------|

(guitar2 - lead)

D#-----------------------------------------------------------------|
A#-----15-(bend and temelo pick)-----------------------------------|
F#-----------------------------------15p14p12-(fast picking)-------|
C#-----------------------------------------------------------------|
G#-----------------------------------------------------------------|
C#-----------------------------------------------------------------|



(3:49-4:00)

D#----------------------------------------------------------------|
A#----------------------------------------------------------------|
F#----------------------------------------------------------------|
C#--------------------------------4-------------------------------|
G#----4--7-6-5/------------4-5-6----------------------------------|
C#--6-------------4-5-4--0----------------------------------------|
Добавлено: 24.10.2013
Другие материалы по этой песне:

Страница создана 25.06.2012
http://primanota.ru/rwake/leviticus-chords.htm
Привет, Гость.
Предлагаем пройти революционный курс по гитаре.
Подарок от PrimaNota.Ru, забирай!