PrimaNota.ru - самый крупный в мире бесплатный архив песенных текстов, аккордов, табулатур и нот


Ruts - Something That I Said - аккорды и текст, видео

Регистрация Запомнить меня
Войти через:  Facebook Google Twitter Vk Yandex Mail.ru

Ruts - Something That I Said - аккорды и текст, видео

Печатать
Просмотров: 67
Авторы музыки: John Jennings, Malcolm Owen, Dave Ruffy, Paul Fox

Something That I Said
Ruts
SOMETHING THAT I SAID by THE RUTS

Tricky-ish intro (also the verse riff)  Please feel free to add bits.

E--------------------------------------------
B--------------------------------------------
G-----7-7-7-7-7-7-7-7-7-7-7-7-7-7-7-7-9h-----
D-----5-5-5-4-4-4-5-5-5-4-4-4-5-5-4-4-7h-----
A--------------------------------------------
E--------------------------------------------


E--------------------------------------------
B-------------------------------------2------
G-----7-7-7-7-7-7-7-7-7-7-7-7-7-7-7-7-2h-----
D-----5-5-5-4-4-4-5-5-5-4-4-4-5-5-4-4-2h-----
A-------------------------------------0h-----
E--------------------------------------------

Chorus:
G
Was it something that I said Something that I said 
B
Something in my head? 


THERE'S A BREAK IN THE MIDDLE AS WELL WHICH IS:

A  (strum)  G (strum)  x2
B  (strum)  A (strum)
B

-------------------------------------------------------------------------------------------------------



ALL SONG LYRICS ARE:

OK, kick me in the head 
Just cause something that I said 
You don't want to know the truth 
Cause you're wild and full of youth 

Was it something that I said 
Something that I said 
Something in my head? 

You ain't got no friends no more 
Cause you kicked them to the floor 
Time will tell, and you will see 
That it's down to you, not me 

Was it something that I said 
Something that I said 
Something in my head? 

OK, now you're on your own 
Your self-righteousness has grown 
So get off your pedestal 
Before you ain't got no friends no more 

Was it something that I said 
Something that I said 
Something in my head?
Добавлено: 14.08.2015
Вам также может быть интересно:
Другие материалы по этой песне:
  • Аккорды и текст

Страница создана 14.08.2015
http://primanota.ru/ruts/something-that-i-said-chords.htm
Привет, Гость.
Предлагаем пройти революционный курс по гитаре.
Подарок от PrimaNota.Ru, забирай!