PrimaNota.ru - самый крупный в мире бесплатный архив песенных текстов, аккордов, табулатур и нот


Ruta De Evacuacion - Lunetas - таба, видео

Регистрация Запомнить меня
Войти через:  Facebook Google Twitter Vk Yandex Mail.ru

Ruta De Evacuacion - Lunetas - таба, видео

Печатать
Просмотров: 60
Lunetas


Ruta de Evacuación

                          www.myspace.com/rutalandia


Guitarra 1

----------------------------------------------------------------------|
----------------------------------------------------------------------|
----------------------------------------------------------------------|  X9
------2---3---5-------2---3---5--------2---3---5-------2-------3-0----|
--3-3---3---3---3------------------0-0---0---0---0--------------------|
------------------3-3---3---3---3------------------1-1---1-3-3--------|


Guitarra 2

-----------------------------------------------------------------|
----8--------8-----------8---------8-----------------------------|
------9-7-9----9-7-9-10-----9-7-9----9-7-9-10--------------------|
-----------------------------------------------------------------|  X?
-----------------------------------------------------------------|
-----------------------------------------------------------------|


Guitarra 1 con distor( mientras la guitarra 2 sigue en lo k llevaba)

------------------------------------------------------|
------------------------------------------------------|
-5-5-5-5-5-5------------------------------------------|
-5-5-5-5-5-5-5-5-5-5-5-5-7-7-7-7-7-7-3-3-3-3-5-5-5-5--|
-3-3-3-3-3-3-5-5-5-5-5-5-7-7-7-7-7-7-3-3-3-3-5-5-5-5--|
-------------3-3-3-3-3-3-5-5-5-5-5-5-1-1-1-1-3-3-3-3--|


verso

-----------------------------------------------------------------|
-----------------------------------------------------------------|
--5-X-X-X-X-X----------------------------------------------------|
--5-X-X-X-X-X-5-X-X-X-X-X-7-X-X-X-X-X-3-X-X-X-5-X-X-X------------|
--3-X-X-X-X-X-5-X-X-X-X-X-7-X-X-X-X-X-3-X-X-X-5-X-X-X------------|
--------------3-X-X-X-X-X-5-X-X-X-X-X-1-X-X-X-3-X-X-X------------|


CORO

------------------------------------------------------|
-5-5-5-5-5-5------------------------------------------|
-5-5-5-5-5-5-5-5-5-5-5-5-7-7-7-7-7-7-3-3-3-3-5-5-5-5--|
-3-3-3-3-3-3-5-5-5-5-5-5-7-7-7-7-7-7-3-3-3-3-5-5-5-5--|
-------------3-3-3-3-3-3-5-5-5-5-5-5-1-1-1-1-3-3-3-3--|


INTRO

VERSO

CORO

INTERMEDIO


-----------------------------------------------------------------|
-----------------------------------------------------------------|
-----------------------------------------------------------------|
-----5-----5---5-5-3-2-3-2-0-2-0------5-----5---5-5-3-2-3-2-0-2--|
-3-3---3-3---3--------------------3-3---3-3---3------------------|
-----------------------------------------------------------------|


--------------------------------------------------------------------|
--------------------------------------------------------------------|
--------------------------------------------------------------------|
-----5-----5---5-5-3-2-3-2-0-2-0------5-----5---5-5-3-2-3-2-0-2-0---|
-3-3---3-3---3--------------------3-3---3-3---3---------------------|
------------------------------------------------------------------3-|


CORO

FIN


-----------------------------------------------------------------|
----8-------8------------8-------8-------------------------------|
------9-7-9---9-7-9-10-9---9-7-9---9-7-9-7-5-5-------------------|
-----------------------------------------------------------------|
-----------------------------------------------------------------|
-----------------------------------------------------------------|



               www.myspace.com/rutalandia
Добавлено: 04.06.2012
Другие материалы по этой песне:
  • Аккорды и текст

Страница создана 04.06.2012
http://primanota.ru/ruta-de-evacuacion/lunetas-chords.htm
Привет, Гость.
Предлагаем пройти революционный курс по гитаре.
Подарок от PrimaNota.Ru, забирай!