PrimaNota.ru - самый крупный в мире бесплатный архив песенных текстов, аккордов, табулатур и нот


Rusty - Misogyny - аккорды и текст, таба, видео

Регистрация Запомнить меня
Войти через:  Facebook Google Twitter Vk Yandex Mail.ru

Rusty - Misogyny - аккорды и текст, таба, видео

Печатать
Просмотров: 138
Misogyny
Rusty




  MISOGYNY
  RUSTY
  
  
  It's off their fluke album.
  It sounds like the band used two guitars to record this song,
  both arranged at a different tone. Thats probably why the
  distortion is so wierd.
  
  It's tuned 1/2 step down
  
 
  
  Intro and main riff:
    F#5 E5       C#5                                 A#5
  e:---------  --------------------------------------------
  B:---------  --------------------------------------------
  G:---------  --------------------------------------------
  D:--42-22-  -/11-11-11-11-11-11-11-11---2-2-2-4-4-6-6---
  A:--42-22-  -/11-11-11-11-11-11-11-11---2-2-2-4-4-6-6---
  E:--2-00-  -/9--9--9--9--9--9--9--9----0-0-0-2-2-4-4---
  
  Verse:
      C#5
  e:------------------------------------
  B:------------------------------------
  G:------------------------------------
  D:--11-11-11-11-11-11-11-11-11-11-11--
  A:--11-11-11-11-11-11-11-11-11-11-11-- ...and so on
  E:--9--9--9--9--9--9--9--9--9--9--9---
      ^                       ^  
  The verse sometimes does this slight variation
      C#5                       Cb5 
  e:-----------------------------------------
  B:-----------------------------------------
  G:-----------------------------------------
  D:--11-11-11-11-11-11-11-11-119/11-11-11--
  A:--11-11-11-11-11-11-11-11-119/11-11-11-- ...and so on
  E:--9--9--9--9--9--9--9--9--9-7/9--9--9---
      ^                       ^
  
  
  Then comes this part:
        E5         Cb5   F#5         C#5
  e:--------0----------------------------------
  B:---------0--------------------------------- After the second
  G:------------------------------------------- time they play 
  D:----2------2----9-9--4--4-4-4--4/11-11-11-- this, go to the
  A:----2-----------9-9--4--4-4-4--4/11-11-11-- chorus...
  E:----0-----------7-7--2--2-2-2--2/9--9--9---  
    oh  uuuuuuuuuuuuuuuuuup  side   down
  
  
  
  Chorus:
  I'll start the chorus at this part so the tab is clearer
     Cb5 C#5
  e:-------------------------------------------
  B:------------------------------------------- the rythm is way
  G:------------------------------------------- off here, but 
  D:--9/11-11--9/11-11--9/11--9/11-11--9/11-11- you get the idea
  A:--9/11-11--9/11-11--9/11--9/11-11--9/11-11-
  E:--7/9--9---7/9--9---7/9---7/9--9---7/9--9--
  
         E5            Cb5   F#5
  e:-------0--------------------------------------------------
  B:--------0-------------------------------------------------
  G:----------------------------------------------------------
  D:----2-----2--------9-9--4--4-4-4---9/11-11--9/11-11--9/11- 
  A:----2--------------9-9--4--4-4-4---9/11-11--9/11-11--9/11-
  E:----0--------------7-7--2--2-2-2---7/9--9---7/9--9---7/9--
    and if you ask the cruellest      sole                 
 (etc)
  
  
  Then:
      A#5           F#5
  e:---------------------------------------------------
  B:---------------------------------------------------
  G:---------------------------------------------------
  D:--6-6-6-6-6-6-6-4-4-4-4-4-4-4-4--9/11-11--9/11-11-- etc
  A:--6-6-6-6-6-6-6-4-4-4-4-4-4-4-4--9/11-11--9/11-11--
  E:--4-4-4-4-4-4-4-2-2-2-2-2-2-2-2--7/9--9---7/7--9---
  
  Meanwhile, the second guitar makes a very distorted sound
that
  can be achieved by lightly sliding your finger up or down
  between the 2nd and 6th fret on the low E string...  
  
  And finaly:
  e:----------------------------------------------------
  B:----------------------------------------------------
  G:----------------------------------------------------
  D:--6-6-6-6-6-6-6-6-4-4-4-4-4-4-4-4-2-2-2-2-2-2-2-2---
  A:--6-6-6-6-6-6-6-6-4-4-4-4-4-4-4-4-2-2-2-2-2-2-2-2---
  E:--4-4-4-4-4-4-4-4-2-2-2-2-2-2-2-2-0-0-0-0-0-0-0-0---
     you'll always give him one moooooooooooooore
  e:-------------------------------------
  B:-------------------------------------
  G:-------------------------------------                      

  D:--4-4-4--4/5--5-5--/6-6-6-6-6-6-6-6--
  A:--2-2-2--2/3--3-3--/4-4-4-4-4-4-4-4--                      

  E:-------------------------------------
      yeyeyeyeyeyeyeeeaaaahhhhhhhhh    
          
  	e:-------------------------------------------
  	B:-------------------------------------------
  	G:-------------------------------------------
  	D:--2-2-2-4-4-6-6-/11-11-11-11-11-11-11-11---
  	A:--2-2-2-4-4-6-6-/11-11-11-11-11-11-11-11---
  	E:--0-0-0-2-2-4-4-/9--9--9--9--9--9--9--9----
  
   
  Outro:
  
  e:-----0------------------------------------------------
  B:------0-----------------------------------------------
  G:------------------------------------------------------
  D:--2-----2----9----4----111111111111111111111111~~~~~~~
  A:--2----------9----4----111111111111111111111111~~~~~~~
  E:--0----------7----2----9-9-9-9-9-9-9-9-9-9-9-9-~~~~~~~
  
  
   
  
  	Thats about it. This is as close as i can get to the real
  thing. I saw them live three times, and i think this is how
  Scott plays it. But still, if you think i'm dead wrong about
  this tab, send me corrections.
  
  							Enjoy,
  								J.P.
 


Добавлено: 13.08.2013
Вам также может быть интересно:
Другие материалы по этой песне:
  • Аккорды и текст

Страница создана 27.02.2012
http://primanota.ru/rusty/misogyny-chords.htm
Привет, Гость.
Предлагаем пройти революционный курс по гитаре.
Подарок от PrimaNota.Ru, забирай!