PrimaNota.ru - самый крупный в мире бесплатный архив песенных текстов, аккордов, табулатур и нот


Rusty Eye - Wings Of A Demon - таба, видео

Регистрация Запомнить меня
Войти через:  Facebook Google Twitter Vk Yandex Mail.ru

Rusty Eye - Wings Of A Demon - таба, видео

Печатать
Просмотров: 70
Уроки эстрадного вокала в Санкт-Петербурге
-------------------------------------------------------------------------------
                        WINGS OF A DEMON - Rusty Eye
-------------------------------------------------------------------------------
Tabbed by: Baron Murtland
Email: baronmurtland@rustyeye.com
\m/ Web: http://www.rustyeye.com
\m/ Album: http://rustyeye.bandcamp.com/album/possessor

Tuning: Standard E-A-d-g-b-e


Intro



                                             E   E  E   E  E   E  E   E   
E||-------|-------|-------|-------|-----||-------------------------------|
B||-------|-------|-------|-------|-----||------10------------10---------|
G||-------|-------|-------|-------|-----||*---------9-------------9------|
D||-------|-------|-------|-------|-----||*--7---------10--7---------10--|
A||-------|-------|-------|-------|-----||-------------------------------|
E||-------|-------|-------|-------|-----||-------------------------------|
 
 
  E   E  E  E  E   E  E  E     E  E  E  E  E  E  E  E   
----------------------------|--------------------------|
-----10---------------------|-----8-----------8--------|
---------9------------------|--------7-----------7-----|
--7---------7--8--10--8--5--|--5--------8--5--------8--|
----------------------------|--------------------------|
----------------------------|--------------------------|
 
 
                                     PM      PM    PM PM  
  E  E  E  E  E  E  E  E   4x   Q    E  Q    E  E  S  S   
----------------------------||---------------------------|
-----8----------------------||---------------------------|
--------7-----------------*-||---------------------------|
--5--------5--7--8--7-----*-||---------------------------|
-----------------------5----||--7-------7-------7--------|
----------------------------||--5----5--5----5--5--5--5--|
 
 
       PM      PM    PM PM         PM      PM    PM PM  
  Q    E  Q    E  E  S  S     Q    E  Q    E  E  S  S   
---------------------------|---------------------------|
---------------------------|---------------------------|
---------------------------|---------------------------|
---------------------------|---------------------------|
--7-------7-------7--------|--8-------8-------8--------|
--5----5--5----5--5--5--5--|--6----6--6----6--6--6--6--|
 
 
       PM      PM                PM      PM    PM PM  
  Q    E  Q    E  E  E      Q    E  Q    E  E  S  S   
-------------------------|---------------------------|
-------------------------|---------------------------|
-------------------------|---------------------------|
-------------------------|---------------------------|
--8-------8-------8--7b--|--7-------7-------7--------|
--6----6--6----6--6--5b--|--5----5--5----5--5--5--5--|
 
 
       PM      PM    PM PM         PM      PM    PM PM  
  Q    E  Q    E  E  S  S     Q    E  Q    E  E  S  S   
---------------------------|---------------------------|
---------------------------|---------------------------|
---------------------------|---------------------------|
---------------------------|---------------------------|
--7-------7-------7--------|--8-------8-------8--------|
--5----5--5----5--5--5--5--|--6----6--6----6--6--6--6--|
 
 
       PM      PM                PM      PM    PM PM  
  Q    E  Q    E  E  E      Q    E  Q    E  E  S  S   
-------------------------|---------------------------|
-------------------------|---------------------------|
-------------------------|---------------------------|
-------------------------|---------------------------|
--5-------5-------5--7b--|--7-------7-------7--------|
--3----3--3----3--3--5b--|--5----5--5----5--5--5--5--|
 
 
       PM      PM    PM PM         PM      PM    PM PM  
  Q    E  Q    E  E  S  S     Q    E  Q    E  E  S  S   
---------------------------|---------------------------|
---------------------------|---------------------------|
---------------------------|---------------------------|
---------------------------|---------------------------|
--7-------7-------7--------|--8-------8-------8--------|
--5----5--5----5--5--5--5--|--6----6--6----6--6--6--6--|
 
 
       PM      PM                PM      PM    PM PM  
  Q    E  Q    E  E  E      Q    E  Q    E  E  S  S   
-------------------------|---------------------------|
-------------------------|---------------------------|
-------------------------|---------------------------|
-------------------------|---------------------------|
--8-------8-------8--7b--|--7-------7-------7--------|
--6----6--6----6--6--5b--|--5----5--5----5--5--5--5--|
 
 
       PM      PM    PM PM         PM      PM    PM PM  
  Q    E  Q    E  E  S  S     Q    E  Q    E  E  S  S   
---------------------------|---------------------------|
---------------------------|---------------------------|
---------------------------|---------------------------|
---------------------------|---------------------------|
--7-------7-------7--------|--8-------8-------8--------|
--5----5--5----5--5--5--5--|--6----6--6----6--6--6--6--|
 
 
       PM      PM    PM PM                    PM PM PM PM  
  Q    E  Q    E  E  S  S     E.  E.  E.  E.  S  S  S  S   
---------------------------|------------------------------|
---------------------------|------------------------------|
---------------------------|------------------------------|
---------------------------|--9---9---9---9---------------|
--5-------5-------5--------|--7---7---7---7---------------|
--3----3--3----3--3--3--3--|--7---7---7---7---7--7--7--7--|
 
 
                      PM PM PM PM                    PM PM PM PM  
   E.   E.   E.   E.  S  S  S  S     E.  E.  E.  E.  S  S  S  S   
----------------------------------|------------------------------|
----------------------------------|------------------------------|
----------------------------------|------------------------------|
--10---10---10---10---------------|--9---9---9---9---------------|
---8----8----8----8---------------|--7---7---7---7---------------|
---8----8----8----8---8--8--8--8--|--7---7---7---7---7--7--7--7--|
 
 
                  PM PM PM PM                    PM PM PM PM  
  E.  E.  E.  E.  S  S  S  S     E.  E.  E.  E.  S  S  S  S   
------------------------------|------------------------------|
------------------------------|------------------------------|
------------------------------|------------------------------|
--7---7---7---7---------------|--9---9---9---9---------------|
--5---5---5---5---------------|--7---7---7---7---------------|
--5---5---5---5---5--5--5--5--|--7---7---7---7---0--0--0--0--|
 
 
                  PM PM PM PM    ^   ^   ^   ^   PM PM PM PM  
  E.  E.  E.  E.  S  S  S  S     E.  E.  E.  E.  S  S  S  S   
------------------------------|------------------------------|
------------------------------|------------------------------|
------------------------------|------------------------------|
--3---3---3---3---------------|------------------------------|
--3---3---3---3---------------|--2---2---2---2---------------|
--1---1---1---1---1--1--1--1--|--0---0---0---0---0--0--0--0--|
 
 
                                PM PM                       
  E.  E.  E.  E.  S S S S    E  S  S  E  S S S S S S Q      
--------------------------|--------------------------------|
--------------------------|--------------------------------|
--------------------------|--------------------------------|
--5---5---5---5---5-5-5-5-|--------------------------------|
--5---5---5---5---5-5-5-5-|--7--------7--8-8-8-8-7-5-7~----|
--3---3---3---3---3-3-3-3-|--5--5--5--5--------------------|
 
 
     PM PM                            PM PM                           
  E  S  S  E  S S S S S S Q        E  S  S  E   S  S  S  S S S Q      
--------------------------------|------------------------------------|
--------------------------------|------------------------------------|
--------------------------------|------------------------------------|
--------------------------------|------------------------------------|
--7--------7--8-8-8-8-7-5-7~----|--8--------8--10-10-10-10-8-7-8~----|
--5--5--5--5--------------------|--6--6--6--6------------------------|
 
 
     PM PM                                  PM PM                       
  E  S  S  E   S  S  S  S S  S  E  E     E  S  S  E  S S S S S S Q      
--------------------------------------|--------------------------------|
--------------------------------------|--------------------------------|
--------------------------------------|--------------------------------|
-----------------------------------7--|--------------------------------|
--8--------8--10-10-10-10-8p-7--------|--7--------7--8-8-8-8-7-5-7~----|
--6--6--6--6-------------------10-----|--5--5--5--5--------------------|
 
 
     PM PM                            PM PM                           
  E  S  S  E  S S S S S S Q        E  S  S  E   S  S  S  S S S Q      
--------------------------------|------------------------------------|
--------------------------------|------------------------------------|
--------------------------------|------------------------------------|
--------------------------------|------------------------------------|
--7--------7--8-8-8-8-7-5-7~----|--8--------8--10-10-10-10-8-7-8~----|
--5--5--5--5--------------------|--6--6--6--6------------------------|
 
 
     PM PM                                                           
  E  S  S  E   S  S  S  S S  S  E  E        E  E  E  E  E  E  E  E   
---------------------------------------||---------------------------|
---------------------------------------||---------------------------|
---------------------------------------||*--------------------------|
-----------------------------------7s--||*--3--3--3--3--3--3--3--3--|
--8--------8--10-10-10-10-8p-7---------||---3--3--3--3--3--3--3--3--|
--6--6--6--6-------------------10------||---1--1--1--1--1--1--1--1--|
 
 
                                             ^  ^  ^  ^   
  E  E  E  E  E  E  E  E     S S S S S S S S E  E  E  E   
--------------------------|------------------------------|
--------------------------|------------------------------|
--------------5--5--5--5--|------------------------------|
--6--6--6--6--5--5--5--5--|------------------------------|
--6--6--6--6--3--3--3--3--|--2-2-3-3-2-2-----2--2--2--2--|
--4--4--4--4--------------|--------------3-3-0--0--0--0--|
 
 
                  PM PM PM PM PM PM PM PM            PM      PM    PM PM  
  S S S S S S S S S  S  S  S  S  S  S  S        Q    E  Q    E  E  S  S   
--------------------------------------------||---------------------------|
--------------------------------------------||---------------------------|
------------------------------------------*-||---------------------------|
------------------------------------------*-||---------------------------|
--2-2-3-3-2-2-------------------------------||--7-------7-------7--------|
--------------3-3-0--0--0--0--0--0--0--0----||--5----5--5----5--5--5--5--|
 
 
       PM      PM    PM PM         PM      PM    PM PM  
  Q    E  Q    E  E  S  S     Q    E  Q    E  E  S  S   
---------------------------|---------------------------|
---------------------------|---------------------------|
---------------------------|---------------------------|
---------------------------|---------------------------|
--7-------7-------7--------|--8-------8-------8--------|
--5----5--5----5--5--5--5--|--6----6--6----6--6--6--6--|
 
 
       PM      PM                PM      PM    PM PM  
  Q    E  Q    E  E  E      Q    E  Q    E  E  S  S   
-------------------------|---------------------------|
-------------------------|---------------------------|
-------------------------|---------------------------|
-------------------------|---------------------------|
--8-------8-------8--7b--|--7-------7-------7--------|
--6----6--6----6--6--5b--|--5----5--5----5--5--5--5--|
 
 
       PM      PM    PM PM         PM      PM    PM PM  
  Q    E  Q    E  E  S  S     Q    E  Q    E  E  S  S   
---------------------------|---------------------------|
---------------------------|---------------------------|
---------------------------|---------------------------|
---------------------------|---------------------------|
--7-------7-------7--------|--8-------8-------8--------|
--5----5--5----5--5--5--5--|--6----6--6----6--6--6--6--|
 
 
       PM      PM                PM      PM    PM PM  
  Q    E  Q    E  E  E      Q    E  Q    E  E  S  S   
-------------------------|---------------------------|
-------------------------|---------------------------|
-------------------------|---------------------------|
-------------------------|---------------------------|
--5-------5-------5--7b--|--7-------7-------7--------|
--3----3--3----3--3--5b--|--5----5--5----5--5--5--5--|
 
 
       PM      PM    PM PM         PM      PM    PM PM  
  Q    E  Q    E  E  S  S     Q    E  Q    E  E  S  S   
---------------------------|---------------------------|
---------------------------|---------------------------|
---------------------------|---------------------------|
---------------------------|---------------------------|
--7-------7-------7--------|--8-------8-------8--------|
--5----5--5----5--5--5--5--|--6----6--6----6--6--6--6--|
 
 
       PM      PM                PM      PM    PM PM  
  Q    E  Q    E  E  E      Q    E  Q    E  E  S  S   
-------------------------|---------------------------|
-------------------------|---------------------------|
-------------------------|---------------------------|
-------------------------|---------------------------|
--8-------8-------8--7b--|--7-------7-------7--------|
--6----6--6----6--6--5b--|--5----5--5----5--5--5--5--|
 
 
       PM      PM    PM PM         PM      PM    PM PM  
  Q    E  Q    E  E  S  S     Q    E  Q    E  E  S  S   
---------------------------|---------------------------|
---------------------------|---------------------------|
---------------------------|---------------------------|
---------------------------|---------------------------|
--7-------7-------7--------|--8-------8-------8--------|
--5----5--5----5--5--5--5--|--6----6--6----6--6--6--6--|
 
 
       PM      PM    PM PM                    PM PM PM PM  
  Q    E  Q    E  E  S  S     E.  E.  E.  E.  S  S  S  S   
---------------------------|------------------------------|
---------------------------|------------------------------|
---------------------------|------------------------------|
---------------------------|--9---9---9---9---------------|
--5-------5-------5--------|--7---7---7---7---------------|
--3----3--3----3--3--3--3--|--7---7---7---7---7--7--7--7--|
 
 
                      PM PM PM PM                    PM PM PM PM  
   E.   E.   E.   E.  S  S  S  S     E.  E.  E.  E.  S  S  S  S   
----------------------------------|------------------------------|
----------------------------------|------------------------------|
----------------------------------|------------------------------|
--10---10---10---10---------------|--9---9---9---9---------------|
---8----8----8----8---------------|--7---7---7---7---------------|
---8----8----8----8---8--8--8--8--|--7---7---7---7---7--7--7--7--|
 
 
                  PM PM PM PM                    PM PM PM PM  
  E.  E.  E.  E.  S  S  S  S     E.  E.  E.  E.  S  S  S  S   
------------------------------|------------------------------|
------------------------------|------------------------------|
------------------------------|------------------------------|
--7---7---7---7---------------|--9---9---9---9---------------|
--5---5---5---5---------------|--7---7---7---7---------------|
--5---5---5---5---5--5--5--5--|--7---7---7---7---0--0--0--0--|
 
 
                  PM PM PM PM    ^   ^   ^   ^   PM PM PM PM  
  E.  E.  E.  E.  S  S  S  S     E.  E.  E.  E.  S  S  S  S   
------------------------------|------------------------------|
------------------------------|------------------------------|
------------------------------|------------------------------|
--3---3---3---3---------------|------------------------------|
--3---3---3---3---------------|--2---2---2---2---------------|
--1---1---1---1---1--1--1--1--|--0---0---0---0---0--0--0--0--|
 
 
                                PM PM                       
  E.  E.  E.  E.  S S S S    E  S  S  E  S S S S S S Q      
--------------------------|--------------------------------|
--------------------------|--------------------------------|
--------------------------|--------------------------------|
--5---5---5---5---5-5-5-5-|--------------------------------|
--5---5---5---5---5-5-5-5-|--7--------7--8-8-8-8-7-5-7~----|
--3---3---3---3---3-3-3-3-|--5--5--5--5--------------------|
 
 
     PM PM                            PM PM                           
  E  S  S  E  S S S S S S Q        E  S  S  E   S  S  S  S S S Q      
--------------------------------|------------------------------------|
--------------------------------|------------------------------------|
--------------------------------|------------------------------------|
--------------------------------|------------------------------------|
--7--------7--8-8-8-8-7-5-7~----|--8--------8--10-10-10-10-8-7-8~----|
--5--5--5--5--------------------|--6--6--6--6------------------------|
 
 
     PM PM                                  PM PM                       
  E  S  S  E   S  S  S  S S  S  E  E     E  S  S  E  S S S S S S Q      
--------------------------------------|--------------------------------|
--------------------------------------|--------------------------------|
--------------------------------------|--------------------------------|
-----------------------------------7--|--------------------------------|
--8--------8--10-10-10-10-8p-7--------|--7--------7--8-8-8-8-7-5-7~----|
--6--6--6--6-------------------10-----|--5--5--5--5--------------------|
 
 
     PM PM                            PM PM                           
  E  S  S  E  S S S S S S Q        E  S  S  E   S  S  S  S S S Q      
--------------------------------|------------------------------------|
--------------------------------|------------------------------------|
--------------------------------|------------------------------------|
--------------------------------|------------------------------------|
--7--------7--8-8-8-8-7-5-7~----|--8--------8--10-10-10-10-8-7-8~----|
--5--5--5--5--------------------|--6--6--6--6------------------------|
 
 
     PM PM                                                           
  E  S  S  E   S  S  S  S S  S  E  E        E  E  E  E  E  E  E  E   
---------------------------------------||---------------------------|
---------------------------------------||---------------------------|
---------------------------------------||*--------------------------|
-----------------------------------7s--||*--3--3--3--3--3--3--3--3--|
--8--------8--10-10-10-10-8p-7---------||---3--3--3--3--3--3--3--3--|
--6--6--6--6-------------------10------||---1--1--1--1--1--1--1--1--|
 
 
                                             ^  ^  ^  ^   
  E  E  E  E  E  E  E  E     S S S S S S S S E  E  E  E   
--------------------------|------------------------------|
--------------------------|------------------------------|
--------------5--5--5--5--|------------------------------|
--6--6--6--6--5--5--5--5--|------------------------------|
--6--6--6--6--3--3--3--3--|--2-2-3-3-2-2-----2--2--2--2--|
--4--4--4--4--------------|--------------3-3-0--0--0--0--|
 
 
                  PM PM PM PM PM PM PM PM                         
  S S S S S S S S S  S  S  S  S  S  S  S        W                 
--------------------------------------------||-------------------|
--------------------------------------------||-------------------|
------------------------------------------*-||-------------------|
------------------------------------------*-||--2----------------|
--2-2-3-3-2-2-------------------------------||--2----------------|
--------------3-3-0--0--0--0--0--0--0--0----||--0----------------|
 
 
  W                   W                   W                   W                 
-------------------|-------------------|-------------------|-------------------|
-------------------|-------------------|-------------------|-------------------|
--4----------------|--3----------------|--L----------------|-------------------|
--4----------------|--3----------------|--L----------------|--2----------------|
--2----------------|--1----------------|--L----------------|--2----------------|
-------------------|-------------------|-------------------|--0----------------|
 
 
  W                   H        H           W                 
-------------------|-----------0--------|--L----------------|
-------------------|--------------------|-------------------|
--4----------------|--3-----------------|--L----------------|
--4----------------|--3-----------------|--L----------------|
--2----------------|--1-----------------|--L----------------|
-------------------|--------------------|-------------------|
 
 
    E  E  E  E  E  E  E  E     E   E  E   E  E   E  E   E   
--0g3--2-----------------2--|--3p--2---------3p--2--3p--2--|
----------4--3--4--3--4-----|---------3h--4----------------|
----------------------------|------------------------------|
----------------------------|------------------------------|
----------------------------|------------------------------|
----------------------------|------------------------------|
 
 
  E  E  E   E  E  E  E  E     E  E  E  E  E  E  E  E   
---------------------------|--------------------------|
--4--3--1p--0-----0--4--3--|--3--4--3--3--1--0--1--3--|
---------------1-----------|--------------------------|
---------------------------|--------------------------|
---------------------------|--------------------------|
---------------------------|--------------------------|
 
 
  E  E  E  E  E  E  E  E     Q.      Q.     Q        Q.      Q.     Q      
-----------3--2-----------|-----------------------|-----------------------|
--4--3-----------4-----3--|--1~------0------1~----|--4~------3------4~----|
--------------------------|-----------------------|-----------------------|
--------------------------|-----------------------|-----------------------|
--------------------------|-----------------------|-----------------------|
--------------------------|-----------------------|-----------------------|
 
 
                            Tap                                                 
  Q.      Q.      Q         S  S  S  S   S  S  S  S   S  S  S  S   S  S  S  S   
------------------------|------------------------------------------------------|
--6~------7~------8~----|--10p-3h-8p-3h-10p-3h-8p-3h-10p-3h-8p-3h-10p-3h-8p-3h-|
------------------------|------------------------------------------------------|
------------------------|------------------------------------------------------|
------------------------|------------------------------------------------------|
------------------------|------------------------------------------------------|
 
 
   S  S  S  S   S  S  S  S   S  S  S  S   S  S  S  S      Q    H         Q      
-----------------------------------------------------|-------------------------|
--11p-3h-8p-3h-11p-3h-8p-3h-11p-3h-8p-3h-11p-3h-8p-3-|-------------------------|
-----------------------------------------------------|--7g8----7~--------8s----|
-----------------------------------------------------|-------------------------|
-----------------------------------------------------|-------------------------|
-----------------------------------------------------|-------------------------|
 
 
   H         Q     Q      
-------------------------|
-------------------------|
--11~--------8s----4~----|
-------------------------|
-------------------------|
-------------------------|
 
 
   Tap                                                 
   S  S  S  S   S  S  S  S   S  S  S  S   S  S  S  S   
------------------------------------------------------|
--10p-3h-8p-3h-10p-3h-8p-3h-10p-3h-8p-3h-10p-3h-8p-3h-|
------------------------------------------------------|
------------------------------------------------------|
------------------------------------------------------|
------------------------------------------------------|
 
 
   S  S  S  S   S  S  S  S   S  S  S  S   S  S  S  S    Q     H         Q      
-----------------------------------------------------|------------------------|
--11p-3h-8p-3h-11p-3h-8p-3h-11p-3h-8p-3h-11p-3h-8p-3-|------------------------|
-----------------------------------------------------|--4~----5~--------7~----|
-----------------------------------------------------|------------------------|
-----------------------------------------------------|------------------------|
-----------------------------------------------------|------------------------|
 
 
  E  E   E   E    E   E    E   E   
----------------------------------|
-----7------10-------13-------16--|
----------------------------------|
--4--Ls--7---Ls--10---Ls--13------|
----------------------------------|
----------------------------------|
 
 
   Tap                                                             
   S   S   S   S   S   S   S   S   S   S   S   S   S   S   S   S   
--17p-12h-13p-12h-16p-12h-13p-12h-17p-12h-13p-12h-16p-12h-13p-12h-|
------------------------------------------------------------------|
------------------------------------------------------------------|
------------------------------------------------------------------|
------------------------------------------------------------------|
------------------------------------------------------------------|
 
 
   S   S   S   S   S   S   S   S   S   S   S   S   S   S   S   S  
--17p-12h-13p-12h-16p-12h-13p-12h-17p-12h-13p-12h-16p-12h-13p-12-|
-----------------------------------------------------------------|
-----------------------------------------------------------------|
-----------------------------------------------------------------|
-----------------------------------------------------------------|
-----------------------------------------------------------------|
 
 
   S  S  S  S  S  S  S  S  S  S  S  S  S  S  S  S  
--------------------------------------------------|
--14-14-14-14-13-13-13-13-13-13-13-13-------------|
--------------------------------------15-15-15-15-|
--------------------------------------------------|
--------------------------------------------------|
--------------------------------------------------|
 
 
   S  S  S  S  S  S  S  S  S  S  S  S  Q      
---------------------------------------------|
---------------------------------------------|
---------------------------------------------|
--15-15-15-15-15-15-15-15--------------------|
--------------------------16-16-16-16-15~----|
---------------------------------------------|
 
 
   Tap                                                             
   S   S   S   S   S   S   S   S   S   S   S   S   S   S   S   S   
--17p-12h-13p-12h-16p-12h-13p-12h-17p-12h-13p-12h-16p-12h-13p-12h-|
------------------------------------------------------------------|
------------------------------------------------------------------|
------------------------------------------------------------------|
------------------------------------------------------------------|
------------------------------------------------------------------|
 
 
   S   S   S   S   S   S   S   S   S   S   S   S   S   S   S  S   
--19p-12h-13p-12h-17p-12h-13p-12h-20p-12h-13p-12h-22p-12h-13-12s-|
-----------------------------------------------------------------|
-----------------------------------------------------------------|
-----------------------------------------------------------------|
-----------------------------------------------------------------|
-----------------------------------------------------------------|
 
 
                                                    PM PM PM PM PM PM PM PM  
   Q     Q    Q    Q        Q     Q    Q    Q       E  E  E  E  E  E  E  E   
--24~----L----L----L----|---L~----L----L----L----|--------------------------|
------------------------|------------------------|--------------------------|
------------------------|------------------------|--------------------------|
---3-----4----3----4----|---3-----4----3----4----|--3--4--3--4--3--4--3--4--|
---1-----2----1----2----|---1-----2----1----2----|--1--2--1--2--1--2--1--2--|
------------------------|------------------------|--------------------------|
 
 
                                                     PM PM PM PM  
  S S S S S S S S S S S S S S S S    E.  E.  E.  E.  S  S  S  S   
----------------------------------|------------------------------|
----------------------------------|------------------------------|
----------------------------------|------------------------------|
----------------------------------|--9---9---9---9---------------|
--1-1-1-1-1-1-1-1-1-1-1-1-1-1-1-1-|--7---7---7---7---------------|
----------------------------------|--7---7---7---7---7--7--7--7--|
 
 
                      PM PM PM PM                    PM PM PM PM  
   E.   E.   E.   E.  S  S  S  S     E.  E.  E.  E.  S  S  S  S   
----------------------------------|------------------------------|
----------------------------------|------------------------------|
----------------------------------|------------------------------|
--10---10---10---10---------------|--9---9---9---9---------------|
---8----8----8----8---------------|--7---7---7---7---------------|
---8----8----8----8---8--8--8--8--|--7---7---7---7---7--7--7--7--|
 
 
                  PM PM PM PM                    PM PM PM PM  
  E.  E.  E.  E.  S  S  S  S     E.  E.  E.  E.  S  S  S  S   
------------------------------|------------------------------|
------------------------------|------------------------------|
------------------------------|------------------------------|
--7---7---7---7---------------|--9---9---9---9---------------|
--5---5---5---5---------------|--7---7---7---7---------------|
--5---5---5---5---5--5--5--5--|--7---7---7---7---0--0--0--0--|
 
 
                  PM PM PM PM    ^   ^   ^   ^   PM PM PM PM  
  E.  E.  E.  E.  S  S  S  S     E.  E.  E.  E.  S  S  S  S   
------------------------------|------------------------------|
------------------------------|------------------------------|
------------------------------|------------------------------|
--3---3---3---3---------------|------------------------------|
--3---3---3---3---------------|--2---2---2---2---------------|
--1---1---1---1---1--1--1--1--|--0---0---0---0---0--0--0--0--|
 
 
                                PM PM                       
  E.  E.  E.  E.  S S S S    E  S  S  E  S S S S S S Q      
--------------------------|--------------------------------|
--------------------------|--------------------------------|
--------------------------|--------------------------------|
--5---5---5---5---5-5-5-5-|--------------------------------|
--5---5---5---5---5-5-5-5-|--7--------7--8-8-8-8-7-5-7~----|
--3---3---3---3---3-3-3-3-|--5--5--5--5--------------------|
 
 
     PM PM                            PM PM                           
  E  S  S  E  S S S S S S Q        E  S  S  E   S  S  S  S S S Q      
--------------------------------|------------------------------------|
--------------------------------|------------------------------------|
--------------------------------|------------------------------------|
--------------------------------|------------------------------------|
--7--------7--8-8-8-8-7-5-7~----|--8--------8--10-10-10-10-8-7-8~----|
--5--5--5--5--------------------|--6--6--6--6------------------------|
 
 
     PM PM                                  PM PM                       
  E  S  S  E   S  S  S  S S  S  E  E     E  S  S  E  S S S S S S Q      
--------------------------------------|--------------------------------|
--------------------------------------|--------------------------------|
--------------------------------------|--------------------------------|
-----------------------------------7--|--------------------------------|
--8--------8--10-10-10-10-8p-7--------|--7--------7--8-8-8-8-7-5-7~----|
--6--6--6--6-------------------10-----|--5--5--5--5--------------------|
 
 
     PM PM                            PM PM                           
  E  S  S  E  S S S S S S Q        E  S  S  E   S  S  S  S S S Q      
--------------------------------|------------------------------------|
--------------------------------|------------------------------------|
--------------------------------|------------------------------------|
--------------------------------|------------------------------------|
--7--------7--8-8-8-8-7-5-7~----|--8--------8--10-10-10-10-8-7-8~----|
--5--5--5--5--------------------|--6--6--6--6------------------------|
 
 
     PM PM                                                           
  E  S  S  E   S  S  S  S S  S  E  E        E  E  E  E  E  E  E  E   
---------------------------------------||---------------------------|
---------------------------------------||---------------------------|
---------------------------------------||*--------------------------|
-----------------------------------7s--||*--3--3--3--3--3--3--3--3--|
--8--------8--10-10-10-10-8p-7---------||---3--3--3--3--3--3--3--3--|
--6--6--6--6-------------------10------||---1--1--1--1--1--1--1--1--|
 
 
                                             ^  ^  ^  ^   
  E  E  E  E  E  E  E  E     S S S S S S S S E  E  E  E   
--------------------------|------------------------------|
--------------------------|------------------------------|
--------------5--5--5--5--|------------------------------|
--6--6--6--6--5--5--5--5--|------------------------------|
--6--6--6--6--3--3--3--3--|--2-2-3-3-2-2-----2--2--2--2--|
--4--4--4--4--------------|--------------3-3-0--0--0--0--|
 
 
                  PM PM PM PM PM PM PM PM                       ^  ^  ^  ^   
  S S S S S S S S S  S  S  S  S  S  S  S        S S S S S S S S E  E  E  E   
--------------------------------------------||------------------------------|
--------------------------------------------||------------------------------|
------------------------------------------*-||------------------------------|
------------------------------------------*-||------------------------------|
--2-2-3-3-2-2-------------------------------||--2-2-3-3-2-2-----2--2--2--2--|
--------------3-3-0--0--0--0--0--0--0--0----||--------------3-3-0--0--0--0--|
 
 
                  ^ ^ ^ ^ ^       
  S S S S S S S S S S S S E  E    
--------------------------------||
--------------------------------||
--------------------------------||
--------------------------------||
--2-2-3-3-2-2-------------2-----||
--------------3-3-0-0-0-0-0-----||
 
 
 
 
Duration Legend
---------------
W - whole
H - half
Q - quarter
E - 8th
S - 16th
T - 32nd
X - 64th
. - note dotted
|-n-|  - n-tuplets
 
 
Tablature Legend
----------------
L - tied note
x - dead note
g - grace note
(n) - ghost note
> - accentuded note
NH - natural harmonic
AH - artificial harmonic
TH - tapped harmonic
SH - semi harmonic
PH - pitch harmonic
h - hammer on
p - pull off
b - bend
br - bendRelease
pb - preBend
pbr - preBendRelease
brb - bendReleaseBend
\n/ - tremolo bar dip
\n - tremolo bar dive
-/n - tremolo bar Release up
/n\ - tremolo bar inverted dip
/n - tremolo bar return
-\n - tremolo bar Release down
S - shift slide
s - legato slide
/ -  slide into from below or out of upwards
\ -  slide into from above or out of downwards
~ - vibrato
W - wide vibrato
tr - tril'
TP - tremolo picking
T - tapping
S - slap
P - pop
< - fade in
^ - brush up
v - brush down

Добавлено: 01.11.2013
Другие материалы по этой песне:
  • Аккорды и текст

Страница создана 01.11.2013
http://primanota.ru/rusty-eye/wings-of-a-demon-chords.htm
Привет, Гость.
Предлагаем пройти революционный курс по гитаре.
Подарок от PrimaNota.Ru, забирай!