PrimaNota.ru - самый крупный в мире бесплатный архив песенных текстов, аккордов, табулатур и нот


Rusty Cooley - Betcha Cant Play This - таба, видео

Регистрация Запомнить меня
Войти через:  Facebook Google Twitter Vk Yandex Mail.ru

Rusty Cooley - Betcha Cant Play This - таба, видео

Печатать
Просмотров: 104
My poor pinky :(

|--------------------------------------------------------------------------|
|--------------------------------------------------------------------------|
|-------------------------------------------------------------12h14h16h19--|
|-------------------------12h14h16h19-------------12h14h16h19--------------|
|-------------12h16h17h19-------------12h16h17h19--------------------------|
|-12h16h17h19--------------------------------------------------------------|

|-------------------------------------12h15h17h19--------------------------|
|-12h16h17h19-------------12h15h17h19-------------12h15h17h19--------------|
|-------------12h14h16h19-------------------------------------12h14h16h19--|
|--------------------------------------------------------------------------|
|--------------------------------------------------------------------------|
|--------------------------------------------------------------------------|

|--------------------------------------------------------------------------|
|--------------------------------------------------------------------------|
|-------------12h14h16h19--------------------------------------------------|
|-12h14h16h19-------------12h14h16h19--------------------------------------|
|-------------------------------------12h16h17h19--------------------------|
|---------------------------------------------------12/--------------------|

Pretty simple patetrn but playing it at the speed as Rusty does is extremely difficult.
Добавлено: 05.05.2012
Другие материалы по этой песне:

Страница создана 05.05.2012
http://primanota.ru/rusty-cooley/betcha-cant-play-this-chords.htm
Привет, Гость.
Предлагаем пройти революционный курс по гитаре.
Подарок от PrimaNota.Ru, забирай!