PrimaNota.ru - самый крупный в мире бесплатный архив песенных текстов, аккордов, табулатур и нот


Rusty Clanton - Anything - таба, видео

Регистрация Запомнить меня
Войти через:  Facebook Google Twitter Vk Yandex Mail.ru

Rusty Clanton - Anything - таба, видео

Печатать
Просмотров: 39
Уроки эстрадного вокала в Санкт-Петербурге
(just lift your pinky up for the rhythm)
 

[Intro and Verse]

     A           E
e|---4----2------11-----9----------------------------------------------------|
B|---2----2------9------9----------------------------------------------------|
G|---2----2------9------9----------------------------------------------------|
D|---2----2------9------9----------------------------------------------------|
A|---------------------------------------------------------------------------|
E|---------------------------------------------------------------------------|

(the verse is the same just don't play the rhythm on the A and do for the E I'm sure you can figure it out)


  so tell me how I still can't figure you out bit

    Bm     B7
e|--2------2-------------------------------------------------------------------|
B|--3------4-------------------------------------------------------------------|
G|--4------2-------------------------------------------------------------------|
D|--4------4-----------2h4-2-4/6-6-4-------------------------------------------|
A|--2------2--------2h4--------------------------------------------------------|
E|-----------------------------------------------------------------------------|

  Cause baby I would do anything for you

    Bm     B7   
e|--2------2-------------------------------------------------------------------|
B|--3------4-------------------------------------------------------------------|
G|--4------2-------------------------------------------------------------------|
D|--4------4-------------------------------------------------------------------|
A|--2------2-------------------------------------------------------------------|
E|-----------------------------------------------------------------------------|

(There's an extra chord here i'm not sure about i think it's either E or A maybe something else
i can't figure it out)


[Verse] 


[Bridge]

(from Oh, when you feel just like you should to the More more more bit just keep building up on this chords)

e|---------------------------------------------------------------------------|
B|---------------------------------------------------------------------------|
G|----7----2-----------------------------------------------------------------|
D|----7----2----11--9--------------------------------------------------------|
A|----5----0----7---7--------------------------------------------------------|
E|---------------------------------------------------------------------------|

the OOOOOHHs 

e|---0-----0-----0--------------------------------------------------------------|
B|---0-----0-----0--------------------------------------------------------------|
G|---7-----2-----9--------------------------------------------------------------|
D|---7-----2-----9--------------------------------------------------------------|
A|---5-----0-----7--------------------------------------------------------------|
E|------------------------------------------------------------------------------|
Добавлено: 19.10.2017
Другие материалы по этой песне:
  • Аккорды и текст

Страница создана 19.10.2017
http://primanota.ru/rusty-clanton/anything-chords.htm
Привет, Гость.
Предлагаем пройти революционный курс по гитаре.
Подарок от PrimaNota.Ru, забирай!