PrimaNota.ru - самый крупный в мире бесплатный архив песенных текстов, аккордов, табулатур и нот


Rusty Cage - Adipocere - таба, видео

Регистрация Запомнить меня
Войти через:  Facebook Google Twitter Vk Yandex Mail.ru

Rusty Cage - Adipocere - таба, видео

Печатать
Просмотров: 130
Уроки эстрадного вокала в Санкт-Петербурге
Intro/Verse:
E|--------------------------------------------|
B|--------------------------------------------|
G|-----0--------------------------------------|
D|-----------2-----1--------------------------|
A|-----------------------2-----1-----0-----0--|
E|--0-----0-----0-----0-----0-----0-----3-----|
Quickly moving in the morning before the corpse gets cold
Doesn't matter whether young or old
Up the mountain now we make our climb,everyone knows its feeding time
So they sharpen their knives
Sharpen the blades,
Close your eyes'
It'll be OK

Chorus:
      G  F# F  E
E|----3--2--1--0--|
B|----3--2--1--0--|
G|----4--3--2--1--|
D|----5--4--3--2--|
A|----5--4--3--2--|
E|----3--2--1--0--|

G            F#                F        E
Let's take a walk to where the vultures roam
G              F#                F           E
Feast upon the bodies, clean em' down to the bone,
G              F#             F           E
Strip away the cartilage, and rip out the eyes
G                F#           F         E
This is what'll happen to you when you die.

G           F#           F         E
Adipocere
G           F#           F         E
Adipocere
G           F#           F         E
Adipocere
G           F#           F         E
Adipocere


Verse 2:
E|--------------------------------------------|
B|--------------------------------------------|
G|-----0--------------------------------------|
D|-----------2-----1--------------------------|
A|-----------------------2-----1-----0-----0--|
E|--0-----0-----0-----0-----0-----0-----3-----|
Find the mortician with a bag on his head
Watch him as he slices bits of flesh of the dead
Drinks away his whiskey as a mean to atone,
He's never sober, he can't do it alone
So he sharpens his knives,
Sharpens his blades,
Close your eyes,
It'll be ok

Chorus 2:
G            F#                F        E
Let's take a walk to where the vultures roam
G              F#                F           E
Feast upon the bodies, clean em' down to the bone,
G              F#             F           E
Strip away the cartilage, and rip out the eyes
G                F#           F         E
This is what'll happen to you when you die.
G                    F #       F          E
Seven hundred winged creatures waiting in lines,
G           F#      F            E
67 eyes are focused watching em' dine
G        F#           F         E
7 of the brethren are turning their heads
G               F#             F         E
This is how the village people bury their dead,

G           F#           F         E
Adipocere
G           F#           F         E
Adipocere
G           F#           F         E
Adipocere
G           F#           F         E
Adipocere
Добавлено: 11.05.2015
Другие материалы по этой песне:
  • Аккорды и текст

Страница создана 11.05.2015
http://primanota.ru/rusty-cage/adipocere-chords.htm
Привет, Гость.
Предлагаем пройти революционный курс по гитаре.
Подарок от PrimaNota.Ru, забирай!