PrimaNota.ru - самый крупный в мире бесплатный архив песенных текстов, аккордов, табулатур и нот


Русский Размер - Твой свет - аккорды и текст, видео

Регистрация Запомнить меня
Войти через:  Facebook Google Twitter Vk Yandex Mail.ru

Русский Размер - Твой свет - аккорды и текст, видео

Печатать
Просмотров: 95
Уроки эстрадного вокала в Санкт-Петербурге
Твой свет
Русский Размер
Вступление:
Am     Em
Am     Em
F        C
D        E     (Riff1 X 2 раза)         

Am          Em
Кто то сказал, 
Am          Em    Fmaj             C
Там впереди,    Свет твой. 
D     E
Ты - жди.
Am               Em
Всех выше звeзд,
Am      Em
Ярче огня
Fmaj             C
Мой свет,
D       E
Здесь я.

Riff1 X 2 раза
----------------------------
Riff1: 

   Am    Em         Am   Em
1: ------------0------------0
2: 11-11-00-013-11-11-00-013-
3: 22-22-00-----22-22-00-----
4: --------------------------
5: 000----------000---------- 
6: -----0--0---0-----0--0---0


    F      C           D       E
1: ------------------------
2: 11-11--------33-33------
3: 22-22-00-020-22-22-11-11
4: ------22----20-0---22-22
5: 333--3--3--------------- 
6: ------------------0--0--
Добавлено: 21.05.2016
Другие материалы по этой песне:
  • Аккорды и текст

Страница создана 21.05.2016
http://primanota.ru/russkii-razmer/tvoi-svet-chords.htm
Привет, Гость.
Предлагаем пройти революционный курс по гитаре.
Подарок от PrimaNota.Ru, забирай!