PrimaNota.ru - самый крупный в мире бесплатный архив песенных текстов, аккордов, табулатур и нот


Russian Folk - Tsiganochka - таба, видео

Регистрация Запомнить меня
Войти через:  Facebook Google Twitter Vk Yandex Mail.ru

Russian Folk - Tsiganochka - таба, видео

Печатать
Просмотров: 76
Album : Russian Folk
Song : Tsiganochka
Tabbed be: Frederic Briere
Ilie_cobra@hotmail.com


h - hammer on
p - pull off
b - bend string up
r - release bend
/ - slide up
\ - slide down
~ - vibrato
t - tap (with strumming hand)
x - muted, struck string


E----------------------------------------------------------
B-------------------------------------------------------7--
G----------------------7-----7--------------------7-----7--
D--------5-----5-------7-----7-------7------------7--------
A--------5-----5----5-----8----------7---4--7--5-----9-----
E-----3-----6---------------------5------------------------


E----------------------------------------------------------
B----------------------------------------------------------
G------------------7---7-----------6------7--7-------------
D-------5---5------7---7-----7-----6------7--7-------------
A-------5---5----5---8-------7---4------5------------------
E-----3---6----------------5-------------------------------





E-----20~---18~------------------------18~--17~------------
B------------------17~-----------17---------------18~------
G------------------------19--------------------------------
D----------------------------20----------------------------
A----------------------------------------------------------
E----------------------------------------------------------

E------------------17-16-15--------------------------------
B----------18----------------17----------17-15-------------
G----19-------19----------------18----18--------14----14---
D-------20-------------------------19--------------16------
A----------------------------------------------------------
E----------------------------------------------------------

E---------------------------------------15-17h18-18~-18~---
B----13/14/13~---------------------------------------------
G---------------14------------12-14-15---------------------
D-------------------16-------------------------------------
A----------------------------------------------------------
E----------------------------------------------------------

E---18~--17------------------------------------------------
B-----------18--15-------------15--------------------------
G------------------14~------14----16~----------18~---------
D-----------------------16------------18----18----18----18-
A----------------------------------------19----------19----
E----------------------------------------------------------

E----------------------------------------------------------
B-----15~----------15~-------------------------------------
G---------14----14-----------------------------------------
D------------16--------------------------------------------
A----------------------------------------------------------
E----------------------------------------------------------





E----------------------------------------------------------
B-----13--11~-------11-10--6~--------10--8--5--8-8-6--7~---
G-----12--10~-------10--9--7~---------9--7--6--7-7-7--7~---
D----------------------------------------------------------
A----------------------------------------------------------
E----------------------------------------------------------

E----------------------------------------------------------
B-----13--11-11-11-10--8---11-11-10-10---5-6-5-6-5--4~-----
G-----12--12-12-12-11--9---10-10--9--9---5-7-5-7-5--4~-----
D--------------------------------------------------(4)-----
A----------------------------------------------------------
E----------------------------------------------------------

E----------------------------------------------------------
B-----5~---6~----6--6--6------6----------------------------
G-----6~---7~----7--7--7------7----------------------------
D-----7~---7~----7--7--7------7----------------------------
A----------------------------------------------------------
E----------------------------------------------------------






E----------------------------------------------------------
B------------15-17-18--15--------------15-17-18---15-------
G--------15------------15--------14-15------------14-------
D----17----------------------------------------------------
A----------------------------------------------------------
E----------------------------------------------------------

E----------------------------------------------------------
B----------14-15-17--------14-15~----15/13~----------------
G----12-14-----------14-16--------------------12-14-15-----
D----------------------------------------------------------
A----------------------------------------------------------
E----------------------------------------------------------

E----15-17h18-18-18-18-17----------------------------------
B-------------------------18-15-----------15---------------
G-------------------------------14~----14----16~-----------
D-----------------------------------16-----------18----18--
A---------------------------------------------------19-----
E----------------------------------------------------------


                                     Sweep picking

E-------------------------------------18-18---18-18--17-17-
B-------------------------------------18-18---18-18--17-17-
G----18----16-18-19~--(19-19-19-19)------------------------
D-------18-------------------------------------------------
A----------------------------------------------------------
E----------------------------------------------------------

E-----17-17-17-----15-15-17-17-15-15--15/13-13-14-15-16-17-
B-----17-17-17-----15-15-17-17-15-15-----------------------
G----------------------------------------------------------
D----------------------------------------------------------
A----------------------------------------------------------
E----------------------------------------------------------

E----14----18~--17~--15~----------15-15--------------------
B---------------------------17~---------18-15-18-15--------
G---------------------------------------------------14-----
D------------------------------------------------------16--
A----------------------------------------------------------
E----------------------------------------------------------

E----------------------------------------------------------
B-------------------------------------15~----------15~-----
G---14--16~-p14----14-18~-p16----16-------14----14---------
D---------------16------------18-------------16------------
A----------------------------------------------------------
E----------------------------------------------------------




      I am just writing the notes but this is rapid picking

E-----8------6------8---------6--6------5-----6------5--5--
B----------------------------------------------------------
G----------------------------------------------------------
D----------------------------------------------------------
A----------------------------------------------------------
E----------------------------------------------------------

E-----3------5--------3--3----/1--1------0------8-----6--6-
B----------------------------------------------------------
G----------------------------------------------------------
D----------------------------------------------------------
A----------------------------------------------------------
E----------------------------------------------------------

E-----5--6---5----7------9-----------12---10--10-----------
B----------------------------------------------------------
G----------------------------------------------------------
D----------------------------------------------------------
A----------------------------------------------------------
E----------------------------------------------------------






E----------------------------------------------------------
B--------3-5-6-3---3---------------------------------5-8---
G------3---------3---------------------------------6-------
D----5------------------------7-9-10--7---7------7---------
A------------------------7-8------------7------------------
E----------------------------------------------------------

E----------------------------------------------------------
B----6-5---------------------------------------------------
G---------7-6-7~----7/11~-11~------------------------------
D----------------------------------------------------------
A----------------------------------------------------------
E----------------------------------------------------------

E---------------------------------------------5------------
B--------3-5-6-3---3----------------------------8-5--------
G------3---------3----------------------------------6---6--
D----5------------------------7-9-10--7---7-----------7----
A------------------------7-8------------7------------------
E----------------------------------------------------------


E----------------8-6------8-6-------6-5------6-5-----------
B--------------------8--------8---------6--------6---------
G-----6-7~-------------9--------9---------7--------7-------
D---7------------------------------------------------------
A----------------------------------------------------------
E----------------------------------------------------------

E---5-3------5-3--------------3-4-5-6-5---8-6-----8-6------
B-------5--------5------3-5-6-----------------8-------8----
G---------6--------6----------------------------9-------9--
D----------------------------------------------------------
A----------------------------------------------------------
E----------------------------------------------------------

E----6-5------6-5-------5-3---------------------5----10~---
B--------6--------6---------5-------5-6--3-5-6-------------
G----------7--------7---------6---6------------------------
D-------------------------------7--------------------------
A----------------------------------------------------------
E----------------------------------------------------------





Faster and faster (3 times)


E----------------------------------------------------------
B----------------------------------------------------------
G--------------7---7------------7---7----------------------
D-----5---5----7---7---7---7----7---7----------------------
A-----5---5--5---5-----7---7--5---5------------------------
E---3---3------------5---5---------------------------------

E----------------------------------------------------------
B----------------------------------------------------------
G--------------7---7------------6---7----------------------
D-----5---5----7---7---7---7----6---7----------------------
A-----5---5--5---5-----7---7--4---5------------------------
E---3---3------------5---5---------------------------------






E----------------------------------------------------------
B----------------------------------------------------------
G--------------------------------------12~----15-14~-------
D----5-8-7~---/12-11~----/14-12~----15---------------------
A----------------------------------------------------------
E----------------------------------------------------------

E-----------------------------20-18-20----17-17-18-17-18---
B----15-14~------17-15~------------------------------------
G----------------------------------------------------------
D----------------------------------------------------------
A----------------------------------------------------------
E----------------------------------------------------------

E----17--15-17----13-13-15-13-15-----12-12-13-12-13--------
B----------------------------------------------------------
G----------------------------------------------------------
D----------------------------------------------------------
A----------------------------------------------------------
E----------------------------------------------------------

E----10-10-12-10-12-------9-9-10-9-7-9-10------------------
B----------------------------------------------------------
G----------------------------------------------------------
D----------------------------------------------------------
A----------------------------------------------------------
E----------------------------------------------------------






E---22-22-22-----22-22-22----22-22-22-----22-22-22---------
B----------------------------------------------------------
G----------------------------------------------------------
D----------------------------------------------------------
A----------------------------------------------------------
E----------------------------------------------------------

E---22-21-19-21-22-----------------------------------------
B----------------------------------------------------------
G----------------------------------------------------------
D----------------------------------------------------------
A----------------------------------------------------------
E----------------------------------------------------------

E---22-22-22-----22-22-22----22-22-22-----22-22-22-22-21---
B----------------------------------------------------------
G----------------------------------------------------------
D----------------------------------------------------------
A----------------------------------------------------------
E----------------------------------------------------------


E---19-21--22-22-22-22-22----------------------------------
B----------------------------------------------------------
G----------------------------------------------------------
D----------------------------------------------------------
A----------------------------------------------------------
E----------------------------------------------------------







E---20-18-17-20-18-17---18-17-15-18-17-15---17-15-13-17-15-
B----------------------------------------------------------
G----------------------------------------------------------
D----------------------------------------------------------
A----------------------------------------------------------
E----------------------------------------------------------

E---13---15-13-12-15-13-12---13-12-10-13-12-10---12-10-9---
B----------------------------------------------------------
G----------------------------------------------------------
D----------------------------------------------------------
A----------------------------------------------------------
E----------------------------------------------------------

E---12-10-9----9-10-9-7-9-10-------------------------------
B----------------------------------------------------------
G----------------------------------------------------------
D----------------------------------------------------------
A----------------------------------------------------------
E----------------------------------------------------------






E----------------------------------------------------------
B----------------------------------------------------------
G---------------------7-7-7-7---------------------7-7-7-7--
D---5-5-5----5-5-5----7-7-7-7---7-7-7----7-7-7----7-7-7-7--
A---5-5-5----5-5-5----5-5-5-5---7-7-7----7-7-7----5-5-5-5--
E---3-3-3----3-3-3--------------5-5-5----5-5-5-------------

E----------------------------------------------------------
B----------------------------------------------------------
G---------------------7-7-7-7---------------------7--------
D---5-5-5----5-5-5----7-7-7-7---7-7-7----7-7-7----7--------
A---5-5-5----5-5-5----5-5-5-5---7-7-7----7-7-7----5--------
E---3-3-3----3-3-3--------------5-5-5----5-5-5-------------








E---22-22-22-----22-22-22----22-22-22-----22-22-22---------
B----------------------------------------------------------
G----------------------------------------------------------
D----------------------------------------------------------
A----------------------------------------------------------
E----------------------------------------------------------

E---22-21-19-21-22-----------------------------------------
B----------------------------------------------------------
G----------------------------------------------------------
D----------------------------------------------------------
A----------------------------------------------------------
E----------------------------------------------------------


E---22-22-22---22-22-22-22-22-22-22-22-22-22-22-22-22-22---
B----------------------------------------------------------
G----------------------------------------------------------
D----------------------------------------------------------
A----------------------------------------------------------
E----------------------------------------------------------

E---22-22-22-22-22-22-22---22-21-19-21-22-22-22-22-22------
B----------------------------------------------------------
G----------------------------------------------------------
D----------------------------------------------------------
A----------------------------------------------------------
E----------------------------------------------------------








E----------------------------------------------------------
B----------------------------------------------------------
G--------------------------------------12~-----------------
D----5-8-7~---/12-11~----/14-12~----15---------------------
A----------------------------------------------------------
E----------------------------------------------------------


E----------------------------------------------------------
B----15----15-14-12-14-15----------------------------------
G----------------------------------------------------------
D----------------------------------------------------------
A----------------------------------------------------------
E----------------------------------------------------------

E----------------------------------------------------------
B----------------------------------------------------------
G--------------------------------------12~----15-14~-------
D----5-8-7~---/12-11~----/14-12~----15---------------------
A----------------------------------------------------------
E----------------------------------------------------------


                        Repeat twice

E-----------------------18-18-20-18-20----17-17-18-17-18---
B----15-14~------17-15~------------------------------------
G----------------------------------------------------------
D----------------------------------------------------------
A----------------------------------------------------------
E----------------------------------------------------------

E--15-15-17-15-17---13-13-15-13-15----12-12-13-12-13-------
B----------------------------------------------------------
G----------------------------------------------------------
D----------------------------------------------------------
A----------------------------------------------------------
E----------------------------------------------------------

E----10-10-12-10-12-------9-9-10-9-7-9-10------------------
B----------------------------------------------------------
G----------------------------------------------------------
D----------------------------------------------------------
A----------------------------------------------------------
E----------------------------------------------------------





E---22-22-22-----22-22-22----22-22-22-----22-22-22---------
B----------------------------------------------------------
G----------------------------------------------------------
D----------------------------------------------------------
A----------------------------------------------------------
E----------------------------------------------------------

E---22-21-19-21-22-----------------------------------------
B----------------------------------------------------------
G----------------------------------------------------------
D----------------------------------------------------------
A----------------------------------------------------------
E----------------------------------------------------------

E---22-22-22-----22-22-22----22-22-22-----22-22-22-22-21---
B----------------------------------------------------------
G----------------------------------------------------------
D----------------------------------------------------------
A----------------------------------------------------------
E----------------------------------------------------------


E---19-21--22-22-22-22-22----------------------------------
B----------------------------------------------------------
G----------------------------------------------------------
D----------------------------------------------------------
A----------------------------------------------------------
E----------------------------------------------------------







E---22-22-22-----22-22-22----22-22-22-----22-22-22---------
B----------------------------------------------------------
G----------------------------------------------------------
D----------------------------------------------------------
A----------------------------------------------------------
E----------------------------------------------------------

E---22-21-19-21-22-----------------------------------------
B----------------------------------------------------------
G----------------------------------------------------------
D----------------------------------------------------------
A----------------------------------------------------------
E----------------------------------------------------------




E---22-22-22---22-22-22-22-22-22-22-22-22-22-22-22-22-22---
B----------------------------------------------------------
G----------------------------------------------------------
D----------------------------------------------------------
A----------------------------------------------------------
E----------------------------------------------------------

E---22-22-22-22-22-22-22---22-21-19-21-22----22------------
B----------------------------------------------------------
G----------------------------------------------------------
D----------------------------------------------------------
A----------------------------------------------------------
E----------------------------------------------------------


That's it. 
     
Добавлено: 09.09.2013
Другие материалы по этой песне:
  • Аккорды и текст

Страница создана 09.09.2013
http://primanota.ru/russian-folk/tsiganochka-chords.htm
Привет, Гость.
Предлагаем пройти революционный курс по гитаре.
Подарок от PrimaNota.Ru, забирай!