PrimaNota.ru - самый крупный в мире бесплатный архив песенных текстов, аккордов, табулатур и нот


Russian Circles - Memoriam - таба, видео

Регистрация Запомнить меня
Войти через:  Facebook Google Twitter Vk Yandex Mail.ru

Russian Circles - Memoriam - таба, видео

Печатать
Просмотров: 153
Russian circles-memoriam
Tabbed by ear enjoy:)

Eb|-----------------------     |----------------------------|
Bb|-----------------------     |----------------------------|
Gb|--------------0--------     |---------------0------------|
Db|------5-----5---5------(x4) |------5------5---5----------| (x4)
Ab|----7----7---------7---     |----7----7----------7-------|
Eb|-8-------------------8-     |-0---------------------0----|
    C.                           Em.


Eb|--------------------------------------|
Bb|--------------------------------------|
Gb|--------------------------------------|
Db|----10---10---------------------------|
Ab|--------------------------------------|
Eb|--8----8-------0---(7)--------0---(7)-|
                     Natural harmonic


That's all keep an eye out for "memorial" tab coming soon. :)
Добавлено: 01.05.2015
Другие материалы по этой песне:
  • Аккорды и текст

Страница создана 01.05.2015
http://primanota.ru/russian-circles/memoriam-chords.htm
Привет, Гость.
Предлагаем пройти революционный курс по гитаре.
Подарок от PrimaNota.Ru, забирай!